Oops, an error
Loading. Please wait.

Dulce Veneno Chords

8 views 1 this week
no commentswrite comment
1 2 3 4 5
2 more votes to show rating
add to favorites
launch autoscroll
font size
0
reset
transpose
0
reset
display chords
guitar tuner
Autoscroll
slow
fast
+/-
esc
set tempo
stop
Help us to improve Ultimate-Guitar.com Take our survey!
×
Punteo inicial

e|--------------------------------------------|
B|--------------------------------------------|
G|----0----0-----------------0-----0-2-0---0--|
D|-0-----0---2--0-----0---0-----2--------4----|
A|-----------------3--------------------------|
E|--------------------------------------------|

e|-----------------------------------------------|
B|-----------------------------------------------|
G|----0----0----------------0-----0-2-4--2-0-----|
D|-0-----0---2--0----0---0-----2-----------------|
A|----------------3------------------------------|
E|-----------------------------------------------|

G
Ese ruido, de las llaves
                                   C(P.M)
Son tus pasos, al pie de la escalera
G
El silencio, de la espera
                                 C(P.M)
Tu silueta, en el umbral de la puerta

A
Oh-uh-oh-uh-oh
       D
Dulce veneno
A
Oh-uh-oh-uh-oh
       D
Dulce veneno
             G     C
Vivo para morir
         G     C
En tus brazos
G              C
Es tu dulce veneno
G                     C
Y yo me quiero emborrachar

(Punteo)

G

Es su lengua, que dibuja
                   C
El brillo de mi locura
G
El silencio, de la espera
                               C
Tu silueta, en el umbral de la puerta

A
Oh-uh-oh-uh-oh
       D
Dulce veneno
A
Oh-uh-oh-uh-oh
       D
Dulce veneno
             G     C
Vivo para morir
         G     C
En tus brazos
G              C
Es tu dulce veneno
G                     C
Y yo me quiero emborrachar
G          C             G      C
Vivir, muriendo en tus brazos
G       C      G      C
Dulce Veneno, Dulce Veneno

(Punteo)

Termina en G

ARRIBA TROTSKY VENGARAN!
Suggest correction
Give kudos to tab author, rate the tab!
1 2 3 4 5
comments
print report bad tab
guest
You may want to rate the tab now too:
select rating
Wanna post a correction for this tab? Suggest correction