Oops, an error
Loading. Please wait.

El Alma En Dos Tab

72 views 1 this week
no commentswrite comment
1 2 3 4 5
3 more votes to show rating
add to favorites
launch autoscroll
font size
0
reset
how to read this tab
guitar tuner
Autoscroll
slow
fast
+/-
esc
set tempo
stop
Help us to improve Ultimate-Guitar.com Take our survey!
×
INTRO:
|-------------------------------------------------------------------------|
|-------------------------------------------------------------------------|
|-------------------------------------------------------------------------|
|-------------------------------------------------------------------------|
|--------------5-5-4-4------5-5-4-4------5-5-4-4--5-5-5-4-4-2-0-0---------|
|-2-0-2-4-5-5----------0-0----------2-2-----------------------------------|

|-----------------------------------------------------------------|
|-----------------------------------------------------------------|
|-----------------------------------------------------------------|
|-----------------------------------------------------------------|
|-5-5-4-4------5-5-4-4------5-5-4-4--5-5-5-4-4-2------------------|
|---------0-0-----------2-2---------------------------------------|

A
No puedo entender
       F#m
quizas nunca lo hare
         D5            A
pero te juro que esta vez
    E5               D#5 E5
esperaba mejor suerte

A
Tus besos de hotel
    F#m
El perfume de tu piel
          D5       A
quiero tenerlo y nunca
  E5            D#5 E5
aprendo a perder

B            A        B A F#m
Alto es el precio de querer
B      A               E
A un amor cuando es infiel

A
Me gusta pensar
     F#m
que algun dia volveras
      D           A
que estas arrepentida
        E5            D#5 E5
que ya nada sera igual


A
Pero vuelvo a escuchar
        F#m
la mas cruda realidad
     D        A
en boca de amigos
E5                   D#5 E5
que ya no vuelven mas


B            A        B A F#m
Alto es el precio de querer
B     A                E
A un amor cuando es infiel


A             E
Abierta la herida
F#m            D          A
juro que esta vez aprendere
  E           F#m
a no dejarte volver
     D         E
por mas que extrañe
A               E
tus piernas tu risa
     F#m      D            A
tus manos rayandome de pasion
E                 F#m
drogandome con tu voz
     D  E   empieza intro (en E..no en F#)
partiendome el alma en dos


cualquier duda escriban a yaca_20@
salute
Suggest correction
Give kudos to tab author, rate the tab!
1 2 3 4 5
comments
print report bad tab
guest
You may want to rate the tab now too:
select rating
Wanna post a correction for this tab? Suggest correction