Oops, an error
Loading. Please wait.

El Cielo Tab

11 views 1 this week
no commentswrite comment
1 2 3 4 5
3 more votes to show rating
add to favorites
launch autoscroll
font size
0
reset
how to read this tab
guitar tuner
×
Best way to learn
"El Cielo"
Autoscroll
slow
fast
+/-
esc
set tempo
stop
Intro
   G
e|---------------------------------
B|-0-0-1-1-3-3-1-1-0-0-1-3-3-3-3-3-
G|-0-0-0-0-0-0-0-0-0-0-0-0-0-0-0-0-
D|---------------------------------
A|---------------------------------
E|---------------------------------

Riff1
e|-----------------------------------
B|-8-8-7-7-5-5-3-3-0-1-3-3/5-3-3-3-3-
G|-0-0-0-0-0-0-0-0-0-0-0--0--0-0-0-0-
D|-----------------------------------
A|-----------------------------------
E|-----------------------------------

Intro (x3)
Riff1

C                        Cm                                   G (intro x2)
 En las noches más duras,  solo quiero enroscarme en tu cintura
C
 Enfermo por volver a verte,
Cm                                  G (intro x2)
 tiro del hilo que sostiene mi suerte
D                         D                                  G (intro x2)
 No traigo flores de papel, solo estos versos de amor y locura


C                         Cm                          G (intro x2)
  en las vuelta de la vida, perdí la flor que más quería
C
  en tus ojos es puro misterio,
Cm                                  G (intro x2)
  voy a perderme, esta vez es enserio
D                       Am              C
  ruego por la redención, con estos versos de amor

 G        C          G
Toco el cielo en tu cuerpo
        C       D   C                  G
Una estrella fugáz me concedió este deseo
              D                   G
y no preciso más...ya no preciso más.

Intro (x5)
Riff 1
Intro (x2)

e|-----------------------------------------------------------------
B|-----------------------------------------------------------------
G|-5-5-4-4-2-2-0-0-5-5-4-4-2-2-0-0-----0-0-2-2-4-4-5-5-4-4-2-0---0-
D|---------------------------------1-1-------------------------2---
A|-----------------------------------------------------------------
E|-----------------------------------------------------------------


 G        C          G
Toco el cielo en tu cuerpo
        C       D   C                  G
Una estrella fugáz me concedió este deseo
              D                   G
y no preciso más...ya no preciso más

 G        C          G
Toco el cielo en tu cuerpo
        C       D   C                  Em
Una estrella fugáz me concedió este deseo
              D                                      G
y no preciso más (y no preciso más)...ya no preciso más

Intro (x3)
Riff1
Suggest correction
Give kudos to tab author, rate the tab!
1 2 3 4 5
comments
print report bad tab
guest
You may want to rate the tab now too:
select rating
Wanna post a correction for this tab? Suggest correction