Oops, an error
Loading. Please wait.

Flores De Cardo Tab

17 views 1 this week
no commentswrite comment
1 2 3 4 5
3 more votes to show rating
add to favorites
launch autoscroll
font size
0
reset
how to read this tab
guitar tuner
Autoscroll
slow
fast
+/-
esc
set tempo
stop
Help us to improve Ultimate-Guitar.com Take our survey!
×
C            G
  Flores de cardo
              A#             F
crecen en el barro del callejón
  C                     A#
Acá estan los sucios lobos
                     F
los que no tienen remedio
                     G
no se toman nada en serio

      C                            G
los que llegaron siempre tarde a clase
                        A#
sin cuadernos, sin los lápices
                F
no aprendieron nunca la lección
  C                        A#
tratan de bajarse en la parada
                      F
pero son buenos para nada
                     G
no les sale ni el papel de perdedor

A A A  F
         payasos peligrosos
A A A  C
         por una razón
A A A  F          E            A          G
        su combustible es la frustración

C          F      D     G           C
 cómo se siente     seguir tu corazón?
           F      D     G           C
 cómo se siente     seguir tu corazón?
              A#      A      G
  y ser la escusa perfecta
C          A#       F           G
  para que otros desaten su violencia

A# G A# G

solo
e|-----------------------------------------------------------------
B|-----------------------------------------------------------------
G|-5~--7-5-7-5-3~-3/5-5/7-7-7-5-3-5-5-5-5-5-5-5--------------------
D|----------------------------------------------5-5-5-5-3-3-3-3----
A|-----------------------------------------------------------------
E|-----------------------------------------------------------------

e|-8-8----8-8-8----8-8-8---8-------------------------------8--
B|-8-8----8-8-8----8-8-8---8----8----11/9-8----8----11/9-8----
G|-----10-------10-------10--10---10--------10---10-----------
D|------------------------------------------------------------
A|------------------------------------------------------------
E|------------------------------------------------------------

e|-6-6---6-6-6---6-6-6---6-6-6-6-6----------------------------
B|-6-6---6-6-6---6-6-6---6-6-6-6-6-6-6-6-6-6-6-6-6-6-6-6-6-6~-
G|-----8-------8-------8-----------5-5-5-5-5-5-5-5-5-5-5-5-5~-
D|------------------------------------------------------------
A|------------------------------------------------------------
E|------------------------------------------------------------

C           G
 flores de cardo
              A#             F
crecen en el barro del callejón

riff1
G|-5-5-5-5-5-5-5-5-3-3-3-3-3-3-3-3-2-2-2-2-2-2-2-2-4-4-4-4-4-4-4-4--
D|--5-5-5-5-5-5-5-5-3-3-3-3-3-3-3-3-3-3-3-3-3-3-3-3-5-5-5-5-5-5-5-5-

riff1
solo saben regalar espinas
en cada barrio, en cada esquina
los vas a encontrar a estos feos
sucios, reos

A A A  F
         payasos peligrosos
A A A  C
         por una razón
A A A  F          E            A
        su combustible es la frustración

C          F      D     G           C
 cómo se siente     seguir tu corazón?
           F      D     G           C
 cómo se siente     seguir tu corazón?
              A#      A      G
  y ser la escusa perfecta
C          A#       F           G
  para que otros desaten su violencia
C          F      D     G           C
 cómo se siente     seguir tu corazón?
           F      D     G           C
 cómo se siente     seguir tu corazón?
              A#      A      G
  y ser la escusa perfecta
C          A#       F           G
  para que otros desaten su violencia

A# G A# G

|C|G|A#|F|A|A+|D|E|
|x|x|x |x|x|x |x|x|
|x|x|x |x|x|x |x|0|
|x|x|x |x|x|x |x|1|
|5|5|8 |3|7|7 |7|2|
|3|5|8 |3|7|8 |5|2|
|x|3|6 |1|5|6 |x|0|
Suggest correction
Give kudos to tab author, rate the tab!
1 2 3 4 5
comments
print report bad tab
guest
You may want to rate the tab now too:
select rating
Wanna post a correction for this tab? Suggest correction