Oops, an error
Loading. Please wait.

Hora De Volver Tab

4 views 1 this week
no commentswrite comment
1 2 3 4 5
3 more votes to show rating
add to favorites
launch autoscroll
font size
0
reset
how to read this tab
guitar tuner
Autoscroll
slow
fast
+/-
esc
set tempo
stop
Help us to improve Ultimate-Guitar.com Take our survey!
×
Riff 1
e|-----------------------------------------
B|-----------------------------------------
G|-----------------------------------------
D|-------2-2--2----------------2-2--2-4-2--
A|-0-2-4--------4-2-0-0--0-2-4-------------
E|-----------------------------------------

e|---------------------------------------------
B|---------------------------------------------
G|---------------------------------------------
D|-------2-2-2----------------2-2-2-4-2--0-----
A|-0-2-4-------4-2-0-0--0-2-4--------------4-2-
E|---------------------------------------------


A                 D
  Largo camino a casa
E                   A
  quien lo iba a decir
            D
repaso las fotos
    E          A
la hora más feliz

               D
sonrisas congeladas
    E               A
en las que nunca estoy
                D
largo camino a casa
E             A
  hora de volver

             D
será por tu boca
    E           A
tu risa, tus abrazos
                D      E
por las buenas noches, y...
    C#m           F#m
por las otras también
     D           E                  A
una tarde de diciembre me verás volver

e|---------------------------------------
B|---------------------------------------
G|---------------------------------------
D|-------2-2-2----------------2-2-2-4-2--
A|-0-2-4-------4-2-0-0--0-2-4------------
E|---------------------------------------

e|---------------------------------------------
B|---------------------------------------------
G|---------------------------------------------
D|-------2-2-2----------------2-2-2-4-2--0-----
A|-0-2-4-------4-2-0-0--0-2-4--------------4-2-
E|---------------------------------------------

en tus ojos se dibuja
de mi lo mejor
dos gotas de rocío
sobre aquella flor

tan solo recordarlas
ilumina la habitación
largo camino a casa
hora de volver

será por tu boca
tu risa, tus abrazos
por las buenas noches, y...
por las otras también
una tarde de diciembre me verás volver

C#m       F#m          D             E
    y cuando despiertes,  tendré listo el café

e|---------------------------------------
B|---------------------------------------
G|---------------------------------------
D|-------2-2-2----------------2-2-2-4-2--
A|-0-2-4-------4-2-0-0--0-2-4------------
E|---------------------------------------

(aca va con el riff1 sobre la base, hasta que termine)

    A
yo no me voy
  D              E
brillan como el sol
    A
yo no me voy
D          E
en mi corazón
    A
yo no me voy
  D               E
siempre ha de volver
    A
yo no me voy
D             E
ese gusto a miel
    A
yo no me voy
D           E
todo puede ser
    A
yo no me voy
D              E
todo vuelve a ser
   A
igual...
Suggest correction
Give kudos to tab author, rate the tab!
1 2 3 4 5
comments
print report bad tab
guest
You may want to rate the tab now too:
select rating
Wanna post a correction for this tab? Suggest correction