Oops, an error
Loading. Please wait.

Jr Chords

version 2
version 2

Whole song

20 views 1 this week
no commentswrite comment
1 2 3 4 5
3 more votes to show rating
add to favorites
×
Save as Personal and add changes to this tab that will be seen only by you. Learn more ›
×
You can save this tab as Personal to edit and correct it or add notes. All changes will be seen only by you. Learn more »
save as personal
new!
launch autoscroll
font size
0
reset
transpose
0
reset
display chords
guitar tuner
Autoscroll
slow
fast
+/-
esc
set tempo
stop
Strumming
There is no strumming pattern for this song yet. and get +5 IQ
Intro
e -----------------------------------------|    |----------------
B -----7--5-----------------7--5-----------|    |----------------
G -----------6-7-9--6-7-----------6-7-9----|    |-----6-7-4------
D ---7-----------------7--7----------------| x2 |---7-------7-7--
A -7---------------------7-----------------|    |-7--------------
E -----------------------------------------|    |----------------

1)
D        A      E         A      
Yo no puedo ser un hombre derecho
D        A      E         A
Yo no puedo ser ejemplo del vivir
D        A      E         A 
De la gente yo siempre me aprovecho
D            A             D# E  
La vida es un billete para mí.

Intro
1)
Yo tendría que haber sido millonario
Yo la guita la sé gastar muy bien
Yo tendría que haber sido jota erre
Reventando los morlacos que heredé

2) AA DD EE AA

AA    DD   EE       AA
No trabajo ni de la cabeza
AA           DD      EE       AA 
Antes que el yugo prefiero la pobreza

1)
No me mires con ese gesto amargo
En el fondo querés ser como yo
Malgastando entre minas, juego y tragos
Y algún oculto vicio que vos ves

Intro X2

e----------------
B----------------
G-----6-7-4------  X3
D---7-------7-7--
A-7--------------
E----------------
Suggest correction
Give kudos to tab author, rate the tab!
1 2 3 4 5
comments
print report bad tab
guest
Wanna post a correction for this tab? Suggest correction