Oops, an error
Loading. Please wait.

La Vida Sigue Igual Bass

23 views 1 this week
no commentswrite comment
1 2 3 4 5
3 more votes to show rating
add to favorites
launch autoscroll
font size
0
reset
guitar tuner
×
Best way to learn
"La Vida Sigue Igual"
Autoscroll
slow
fast
+/-
esc
set tempo
stop
Riff Intro:
G------------|------------------------------------------------------
D------------|------------------------------------------------------
A-3----------|-3-33-33-33--------------3-33-33-33-------------------
E----3--0--3-|--------------3-33-33-33-------------0-00-00-00-------

G----------------------------------------------------
D----------------------------------------------------
A--3-33-33-33----------------------------------------
E----------------3-33-33-33-0-00-00-00-3-33-33-33----


Riff Base: Verso = (Riff Intro)

Pre Estribillo:              Estribillo: (Repite tres veces)
G-----------------------|-----------------------------
D-----------------------|-----------------------------
A-----------------------|-3-33-33-33------------------
E-0-00-00-00-3-33-33-33-|-------------3-33-33-33-0-00-

G----------------------
D----------------------
A----------------------
E-00-00-3-33-33-33-----

G-------------------------------------------------------------------
D-------------------------------------------------------------------
A-3-33-33-33--------------3-33-33-33--------------3-33-33-33--------
E--------------3-33-33-33--------------0-00-00-00--------------3-33-

G------------------------------
D------------------------------
A------------------------------
E-33-33-0-00-00-00-3-33-33-33--

Riff Base:

Estribillo:

Riff Base:

G--------------------------------------
D----4----4---4----4---6----6---6----6-
A-22
Suggest correction
Give kudos to tab author, rate the tab!
1 2 3 4 5
comments
print report bad tab
guest
You may want to rate the tab now too:
select rating
Wanna post a correction for this tab? Suggest correction