Oops, an error
Loading. Please wait.

Largo Camino A Casa Tab

14 views 1 this week
no commentswrite comment
1 2 3 4 5
3 more votes to show rating
add to favorites
launch autoscroll
font size
0
reset
how to read this tab
guitar tuner
Autoscroll
slow
fast
+/-
esc
set tempo
stop
Help us to improve Ultimate-Guitar.com Take our survey!
×
INTRO

E |-------------------------------------------
B |-------------------------------------------
G |-------------------------------------------
D |--------2-2-2----------------2-2-2-4-2-2---
A |--0-2-4-------4-2-0-0--0-4-2---------------
E |-------------------------------------------


E |-------------------------------------------------
B |-------------------------------------------------
G |-------------------------------------------------
D |--------2-2-2----------------2-2-2-4-2-0---------
A |--0-2-4-------4-2-0-0--0-4-2-------------4-2-0---
E |-------------------------------------------------


A               D    E                    A
LARGO CAMINO A CASA, QUIEN ME IBA A DECIR
            D        E           A
REPASO LAS FOTOS, LA HORA MAS FELIZ
            D            E               A
SONRISAS CONGELADAS, EN LAS QUE NUNCA ESTOY
                D   E           A
LARGO CAMINO A CASA HORA DE VOLVER

               D      E          A
SERA POR TU BOCA, TU RISA TUS ABRAZOS
                D      E         C#         F#
POR LAS BUENAS NOCHES, Y POR LAS OTRAS TAMBIEN
     D           E               A
UNA TARDE DE DICIEMBRE ME VERAS VOLVER


EN TUS OJOS SE DIBUJA DE MI LO MEJOR
DOS GOTAS DE ROCIO SOBRE AQUELLA FLOR
TAN SOLO RECORDARLAS ILUMINA LA HABITACION
LARGO CAMINO A CASA HORA DE VOLVER

SERA POR TU BOCA, TU RISA TUS ABRAZOS
POR LAS BUENAS NOCHES, Y POR LAS OTRA TAMBIÉN
UNA TARDE DE DICIEMBRE ME VERAS VOLVER


C#       F#           D            E
  Y CUANDO DESPIERTES, TENDRE LISTO EL CAFÉ


(toca la intro durante estos versos)

YO NO ME VOY, BRILLAN COMO EL SOL
YO NO ME VOY, EN MI CORAZÓN
YO NO ME VOY, SIEMPRE HA DE VOLVER
YO NO ME VOY, ESE GUSTO A MIEL
YO NO ME VOY, TODO PUEDE SER
YO NO ME VOY, TODO VUELVE A SER, IGUAL
Suggest correction
Give kudos to tab author, rate the tab!
1 2 3 4 5
comments
print report bad tab
guest
You may want to rate the tab now too:
select rating
Wanna post a correction for this tab? Suggest correction