Oops, an error
Loading. Please wait.

Mentiras Tab

version 1
version 1

Whole song

21 views 1 this week
no commentswrite comment
1 2 3 4 5
3 more votes to show rating
add to favorites
launch autoscroll
font size
0
reset
how to read this tab
guitar tuner
×
Best way to learn
"Mentiras"
Autoscroll
slow
fast
+/-
esc
set tempo
stop
Volviendo para subir temas de la mejor banda TKY-VGN
disfrutenla!


INTRO

(primera parte)
e|---------------------
B|---------------------
G|---------------------  x2
D|-------------------2-
A|----------0-2--4-5---
E|-/0--2-4-------------

(segunda parte)
e|--------------------------------------------------|
B|--------------------------------------------------|
G|--------------------------------------------------|
D|-4-4-4-4-4-4-6-6-6-6-6-6--6-6-6-6-6-6-7-7-7-7-7-7-|
A|--------------------------------------------------|
E|--------------------------------------------------|

e|-----------------------------|------------
B|-----------------------------|------------
G|-----6-----------------------|----6-------
D|-7-7---7-9-9--6-6-6-9-6/7-6-4|4-4---7-9-9-
A|-----------------------------|------------
E|-----------------------------|------------

B                E
Ella es un poco asi
            A                D         D-C#-B
dificil de entender, dificil de seguir
B                E
Nunca dice donde va
         A             D        B    E
y solo llama cuando esta desesperada


(ESTRIBILLO)

   A         F#
Mentiras, deliciosas mentiras
  D                      E    INTRO (primera parte)
Aca no hay nada que explicar


B               E
Solo para distraer
         A               D    D-C#-B
aquella pena, la mas profunda
B              E
se dibuja la piel
       A       D          B    E
asi la sangre, el dolor ahoga


(ESTRIBILLO)

   A         F#
Mentiras, deliciosas mentiras
  D                      E    INTRO (primera parte)
Aca no hay nada que explicar


INTRO (segunda parte)

(ESTRIBILLO)

   A         F#
Mentiras, deliciosas mentiras
  D                      E    INTRO (primera parte)
Aca no hay nada que explicar


Por dudas:  elbrunosimpson@
Suggest correction
Give kudos to tab author, rate the tab!
1 2 3 4 5
comments
print report bad tab
guest
You may want to rate the tab now too:
select rating
Wanna post a correction for this tab? Suggest correction