Oops, an error
Loading. Please wait.

Nada Mal (Como Siempre...) Tab

2 views 1 this week
no commentswrite comment
1 2 3 4 5
3 more votes to show rating
add to favorites
launch autoscroll
font size
0
reset
how to read this tab
guitar tuner
×
Best way to learn
"Nada Mal (como Siempre...)"
Autoscroll
slow
fast
+/-
esc
set tempo
stop
DD DD DD DD

DD   DD                    GG
  9 pm, no me quiero guaradar
        GG
una llamada, quedamos allá
AA                          DD
    llueve azucar en la calle

esquivando la velocidad
nos encontramos en la playa
frente al cine que ya no está

       D                    G
como siempre quedamos en silencio
         A                      D
los problemas se pierden en el mar
               A
y no está tan mal
              D
no está nada mal

11 pm, pero quiero más
quedan estrellas para contar
llueve azucar en las calle

casi no se puede caminar
la gente se queja, pero qué más dá
parece que todo les viene mal

como siempre quedamos en silencio
los problemas se pierden en el mar
y no está tan mal

como siempre la noche nos enciende
tantos sueños
que no se pueden contar
no está nada mal (nada mal)

Solo Bajo (guitarra acompaña con palmute)
   D       A       D       G       D       A       D
G|-------------------------------------------------------------
D|---7-5-4-----------7-5-4-5-5-4-----7-5-4---------------------
A|-5---------7-5-4-5-------------7-5---------7-5-4-5-5-----5---
E|---------5-------------------------------5-----------5-5-----

Solo Guitarra (bajo acompaña)

e|---------------------------
B|---------------------------
G|-11-11-11-9-7-9-9-9-9-9-9--
D|-0--0--0--0-0-7-7-7-7-7-7--
A|---------------------------
E|---------------------------

e|---------------------------
B|--------------8-8-8-8-8-8--
G|-11-11-11-9-7-0-0-0-0-0-0--
D|-0--0--0--0-0--------------
A|---------------------------
E|---------------------------

e|---------------------------------------
B|---------------------------------------
G|-11-11-11-9-7-9-9-9-9-9-7-6-7-7-7-7-7--
D|-0--0--0--0-0-7-7-7-7-7-7-7-0-0-0-0-0--
A|---------------------------------------
E|---------------------------------------

G                A
algo te iba a decir
F#                  Bm
que no me pueo acordar
G          A           D
  mejor miramos la gente pasar

como siempre quedamos en silencio
los problemas se pierden en el mar
y no está tan mal

como siempre la noche nos enciende
tantos sueños
que no se pueden contar
no está nada mal
no está nada mal
Suggest correction
Give kudos to tab author, rate the tab!
1 2 3 4 5
comments
print report bad tab
guest
You may want to rate the tab now too:
select rating
Wanna post a correction for this tab? Suggest correction