Oops, an error
Loading. Please wait.

No Es Un Simulacro Chords

8 views 1 this week
no commentswrite comment
1 2 3 4 5
3 more votes to show rating
add to favorites
launch autoscroll
font size
0
reset
transpose
0
reset
display chords
guitar tuner
Autoscroll
slow
fast
+/-
esc
set tempo
stop
Help us to improve Ultimate-Guitar.com Take our survey!
×
PUNTEO INTRO

E-----------------------------------------------------------------------
B-----------------------------------------------------------------------
G-----------------------------------------------------------------------
D-----------------------------------------------------------------------
A---9-7-7-6-7--9-7-7-6-7--9-7-7-6-7--9-7-7-6-7---11-9-9-8-9---9-7-7-6-7-
E--------------------------------7----------7------------7-----------7--


E
Una larga lista de
B
Cosas para odiar
A                        C-B
¿Dónde queda la salida?

Nada personal
estaba escrito en el manual
Solo había que esperar

F#
Toda una vida
       A
Guardada en un cajón

Un laberinto que
No tiene solución
La luz roja está encendida

F#
No es un simulacro
A                 B
La alarma suena ya

E     B   E    B         A
El laboratorio va a explotar
            B
Algo salió mal
E       B      E     B      A
Corres por tu vida una vez más
             B
Y no miras atrás
                E
Vivís para escapar


E

EE EE
EE
 Sos una rata mas
Bb
 Que no quizo cooperar
AA           AA
 Otra generacion perdida
AA
 Alguien tiene que pagar


Punteo (no se) con esta base: E-B-A-B x2


F#
No es un simulacro
A               B
La alarma suena ya

E     B   E    B         A
El laboratorio va a explotar
             B
Algo salió mal
E       B      E     B      A
Corres por tu vida una vez más
             B
Y no miras atrás
               E
Vivís para escapar


A----9-7-7-6-7--9-7-7-6-7---11-9-9-8-9---9-7-7-6-7-
E-----------7----------7------------7-----------7--
Dos veces ese punteo que es el del INTRO pero sin el arranque


_by: FaCh1T4
Suggest correction
Give kudos to tab author, rate the tab!
1 2 3 4 5
comments
print report bad tab
guest
You may want to rate the tab now too:
select rating
Wanna post a correction for this tab? Suggest correction