Oops, an error
Loading. Please wait.

Sueños Rotos Chords

version 2
version 2

Whole song

7 views 1 this week
no commentswrite comment
1 2 3 4 5
3 more votes to show rating
add to favorites
launch autoscroll
font size
0
reset
transpose
0
reset
display chords
guitar tuner
Autoscroll
slow
fast
+/-
esc
set tempo
stop
Help us to improve Ultimate-Guitar.com Take our survey!
×
Esta version a mi parecer y a diferencia
de la otra se parece mas a la que aparece
en el disco "No estamos solos".
Saludos!


Intro: B(x4)

     B         B           E         B
Prefiero al maldito al villano al vulgar
      B          B            F#
no soporto ver ganar al chico bueno
       B       B        E        B
de sonrisa perfecta y vida ejemplar
B             B              F#
   estoy con los que nunca fueron
G#m             G#m       F#  B
   porque sus vidas estan rotas
D#m                Cm
   como los sueños que una ves soñe

B G#m - E F# B (x2)

me molestan los que dicen lo que hay que pensar
estoy con los que apenas piensan
que no temen perder pues saben como es
candilado frente a frente en la miseria

G#m             G#m       F#  B
   por que sus vidas estan rotas
D#m                    Cm
   como tantos de mis sueños


      B         B        E        B
y no buscan justicia ni ley ni moral
E       F#m               B
ni religión que imponga reglas


E||----------------------|----------------------|----------------------|
B||----------------------|----------------------|----------------------|
G||----------------------|----------------------|----------------------|
D||-------4----2----1----|--2----1---------1----|-------4----2----1----|
A||--2-------------------|------------4---------|--2-------------------|
E||----------------------|----------------------|----------------------|


   ----------------------|----------------------|----------------------|
   ----------------------|----------------------|----------------------|
   ----------------------|----------------------|----------------------|
   --2----1---------1----|-------4----6----1----|--2----1---------1----|
   ------------4---------|--2-------------------|------------4---------|
   ----------------------|----------------------|----------------------|


   ----------------------|-------||
   ----------------------|-------||
   ----------------------|-------||
   -------4----2----6----|--4----||
   --2-------------------|-------||
   ----------------------|-------||

G#m             G#m       F#  B
   porque sus vidas estan rotas
D#m                    Cm
   como los sueños que una ves soñé

B G#m - E F# B (x2)

C#

C#               C#     F#     C#
el cobarde ,el enfermo, el anormal
       C#          C#          G#
el que odia lo que odia sin vergüenza
       C#          C#          F#          C#
el que yira, el callado, el que se sienta atrás
     C#         G#
el que no puede mas

A#m                   G#  C#

porque sus vidas estan rotas
F                   D#
 como tantos de mis sueños

C#             C#       F#       C#
y no buscan justicia ni ley ni moral
F#      G#                 C#
ni religión que imponga reglas
F#      G#                 C#   A#m
ni religión que imponga reglas
F#      G#                 C#
ni religión que imponga reglas
Suggest correction
Give kudos to tab author, rate the tab!
1 2 3 4 5
comments
print report bad tab
guest
You may want to rate the tab now too:
select rating
Wanna post a correction for this tab? Suggest correction