Oops, an error
Loading. Please wait.

Suicidándote Tab

1 view 1 this week
no commentswrite comment
1 2 3 4 5
3 more votes to show rating
add to favorites
launch autoscroll
font size
0
reset
how to read this tab
guitar tuner
Autoscroll
slow
fast
+/-
esc
set tempo
stop
Help us to improve Ultimate-Guitar.com Take our survey!
×
Intro

e|--------------------------------------------------------
B|--------------------------------------------------------
G|--------------------------------------------------------
D|--------6---------------6-6-5-----6---------------------
A|--5-6-8---8-6-5---5-6-8-------6-8---8-6-5---5-6-8-6-4-6-
E|-6--------------6-------------------------6-------------

e|----------------------------------------------------------------
B|----------------------------------------------------------------
G|----------------------------------------------------------------
D|--------6---------------6-6-5-----6-----------------------------
A|--5-6-8---8-6-5---5-6-8-------6-8---8-6-5---5-6-8-6-4-6-6-6-6-5-
E|-6--------------6-------------------------6--------------------6

 A#
Seres de dudosa reputación
       C#
dicen lo que si
 G#
lo que no

 A#
besan la mano del señor
C#
escupí
    D#
vos escupí


están festejando pero no sabés qué
no sabés
o no queres


somos el brazo que sostiene el arma
C#
todos
 D#          F
contra la pared

Intro

Nuevas formas de humillación
esta noche
a la diez

que tan bajo podes caer
ya lo ves
ya lo ves

todos se ríen pero no entendés
no entendés
o no querés

somos el brazo que sostiene el arma
todos contra la pared

         A#
Ayer te vi
      C#
suicidándote
     F#
brillando como nunca
     B        G#
dentro de mi TV

Hermosa
suicidándote
tus pedazos flotando
dentro de mi TV

A#               C# F#                G#
 Juguemos al  al traidor
señalame un víctima
puedo ser yo
podés ser vos

         A#
Ayer te vi
      C#
suicidándote
     F#
brillando como nunca
     B        G#
dentro de mi TV

Hermosa
suicidándote
tus pedazos flotando
dentro de mi TV

Intro

A# (acorde final)
Suggest correction
Give kudos to tab author, rate the tab!
1 2 3 4 5
comments
print report bad tab
guest
You may want to rate the tab now too:
select rating
Wanna post a correction for this tab? Suggest correction