Oops, an error
Loading. Please wait.

Tormenta De Mar Bass

37 views 1 this week
no commentswrite comment
1 2 3 4 5
3 more votes to show rating
add to favorites
launch autoscroll
font size
0
reset
guitar tuner
×
Best way to learn
"Tormenta De Mar"
Autoscroll
slow
fast
+/-
esc
set tempo
stop
Tormenta de Mar (Version en Vivo)

intro:

G||--------------------------|--------------------------|
D||--------------------------|--------------------------|
A||--------------------------|--------------------------|
E||--0--0--3--3--5--5--3--3--|--0--0--3--3--7--5--3--0--|

L = ligadura (si keres no lo hagas keda bien igual)

G||--------------------------|--------------------------|
D||--------------------------|--------------------------| x4
A||--------------------------|--------------------------|
E||--L--0--3--3--5--5--3--3--|--0--0--3--3--7--5--3--0--|

G||--------------------------|--------------------------|
D||--------------------------|--------------------------|
A||--------------------------|--------------7--5--3--0--|
E||--L--0--3--3--5--5--3--3--|--0--0--3--3--------------|

G||--------------------------|--------------------------|
D||--------------------------|--------------------------|
A||--L--0--3--3--5--5--3--3--|--0--0--3--3--------------|
E||--------------------------|--------------7--5--3--0--|

G||--------------------------|--------------------------|
D||--------------------------|--------------------------|
A||--------------------------|--------------------------|
E||--L--0--3--3--5--5--3--3--|--0--0--3--3--7--7--5--7--|

G||--------------------------|---------------------||
D||--------------------------|---------------------||
A||--------------------------|---------------------||
E||--7--7--7--7--7--7--7--7--|--7------------------||

el resto de la cancion es igual, o sea las mismas partes
una y otra vez, vos ves donde va cada parte.. es facil..

al final hay un

G||--------------------------|
D||--------------------------|
A||--------------------------|
E||--0--0--3--3--7--5--3--0--|

ke dura mas, lo ke vendria a ser la outro, escucha la
cancion y fijate como es..

Observaciones:
--------------

* los acordes de la cancion son E A B.. TODA LA CANCION

* esta es la version en VIVO de la cancion..

* esta es una cancion muy elemental.. debe tener sus
sutilezas por ahi, esto es una base nomas..

* trotsky vengaran es una banda pelotuda para pib*s de 14 años
aun asi, esta cancion esta bastante buena..

* si no te gusta o no te suena no me importa..
para mi esta bastante bien..
Suggest correction
Give kudos to tab author, rate the tab!
1 2 3 4 5
comments
print report bad tab
guest
You may want to rate the tab now too:
select rating
Wanna post a correction for this tab? Suggest correction