Oops, an error
Loading. Please wait.

Una Extraña Sensación Tab

19 views 1 this week
no commentswrite comment
1 2 3 4 5
3 more votes to show rating
add to favorites
launch autoscroll
font size
0
reset
how to read this tab
guitar tuner
Autoscroll
slow
fast
+/-
esc
set tempo
stop
Help us to improve Ultimate-Guitar.com Take our survey!
×
Riff
  D                       F
e|----------------------------------------------
B|----------------------------------------------
G|----------------------------------------------
D|-0-00-3-2-0--6-6-5-5-3--0-00-3-2-0--6-6-5-5-3-
A|----------------------------------------------
E|----------------------------------------------
   G                      D          A#   C
e|----------------------------------------------
B|----------------------------------------------
G|----------------------------------------------
D|-0-00-3-2-0--6-6-5-5-3--0-00-3-2-0------2-0---
A|-----------------------------------1-11-----3-
E|----------------------------------------------
(x2)

    D           A#
Un remolino de hojas secas
   F               C      C#
atravesando la tarde sin sol
     D                 A#
un viento helado que se afiló
       F                  A
entre dos esquinas y perdió el control

D                   G
 Una extraña sensación
                    C
los fantasmas revivió
Am                      D
  las promesas de un adiós
                 G
ese viento helado
                       C
cortaba como el diablo
Am
   una extraña sensación

Riff (x2)
    D
Flotando entre esas dos esquinas
asecha el eco de las despedidas
B-5----6--------------5--6----------5--6--------------8--8/10--------
 las flechas engañan la dirección, por eso el viento perdió el control

Una extraña sensación
los fantasmas revivió
las promesas de un adios
ese viento helado
cortaba como el diablo
una extraña sensación

Una extraña sensación
los fantasmas revivió
las promesas de un adios
ese viento helado
cortaba como el diablo
una extraña sensación

F E G A#-A (x2)
 F            E
Todas las mentiras
  G         A#-A
blancas, piadosas
febriles, monstruosas
flotando quedaron
listas para volver
cualquier tarde de invierno
que te envuelva el viento
este viento helado

D
D|-0-00-3-2-0--6-6-5-5-3-
Suggest correction
Give kudos to tab author, rate the tab!
1 2 3 4 5
comments
print report bad tab
guest
You may want to rate the tab now too:
select rating
Wanna post a correction for this tab? Suggest correction