Oops, an error
Loading. Please wait.

Una Vez Màs Bass Tab

17 views 3 this week
no commentswrite comment
1 2 3 4 5
3 more votes to show rating
add to favorites
launch autoscroll
font size
0
reset
guitar tuner
Autoscroll
slow
fast
+/-
esc
set tempo
stop
Help us to improve Ultimate-Guitar.com Take our survey!
×
Riff Base e Intro: Verso
G-----------------|----------------------------------------
D---3-5-3--------|------------------------------------3-5--
A-5--------5------|-55-55-55-5-5-55-55-55-5-5--5-----------
E------------3-5--|--------------------------------3-------

G----------------------------------------
D------------------------------------3-5-
A-55-55-55-5-5-55-55-55-5-55------------
E---------------------------------3------

Estribillo:
G-------------------------------------------------------------------
D-------------------------------------------------------------------
A-55-55-55-55----------------------------------------------------
E----------------5-55-55-55-55-7-77-77-77-77-5-55-55-55-55

Riff Base e Intro: Verso

Estribillo:

Solo:
G----------------------------------------------------------------------
D----------------------------------------------------------------------
A-55-55-55-55----------------------------------55-55-55-55-55-55-55-55-
E---------------5-55-55-55-55-7-77-77-77-77----------------------------

G--------------------------------------
D--------------------------------------
A--------------------------------------
E--5-55-55-55-55-7-77-77-77-77---------

Riff Base e Intro: Verso

Estribillo:
Suggest correction
Give kudos to tab author, rate the tab!
1 2 3 4 5
comments
print report bad tab
guest
You may want to rate the tab now too:
select rating
Wanna post a correction for this tab? Suggest correction