Oops, an error
Loading. Please wait.

Una Vez Màs Chords

22 views 1 this week
no commentswrite comment
1 2 3 4 5
3 more votes to show rating
add to favorites
×
Save as Personal and add changes to this tab that will be seen only by you. Learn more ›
×
You can save this tab as Personal to edit and correct it or add notes. All changes will be seen only by you. Learn more »
save as personal
new!
launch autoscroll
font size
0
reset
transpose
0
reset
simplify chords
display chords
guitar tuner
Autoscroll
slow
fast
+/-
esc
set tempo
stop
Strumming
There is no strumming pattern for this song yet. and get +5 IQ
Intro:
e -------5--------5---------8--------8----- \
B -7--5-----7--5------8--5-----8--5-------- |
                                            |
                                            | x3
e -------7--------7---------5--------5----- |(en la 2da arranca
B -8--5-----8--5------7--5-----7--5-------- | con el verso)
                                            /

D5 D

D5              D
Te encontraré en la barra
D5               D
No creo que hayas cambiado de lugar
D5               D
Me mirarás descreído
D5               D
Saludarás con un último resto de amistad

D      Am        Em          Bm
El mostrador servirá de tablero
D      Am        Em          Bm
Cualquiera vera la intención del alcohol
D      Am        Em          Bm
Una vez mas te reirá de mi pulso
D      Am        Em          Bm
Otra vez mas esconderás el dolor

Te alejarás de la barra
Sin enterarte de la historia la mitad
Ella también se marcho de mi lado
Una vez más nuestra vida será igual

 \
e|-----------------------------------|
B|--------------------5--------------|
G|-5s7-5-5---5----5-7----7-7-5-7-----| x 2
D|---------7----7--------------------|
A|-----------------------------------|
E|-----------------------------------|
/


D      A
Oye la historia
E      D
Ya la conoces
D      A
Oye ese coro
E      D
Lo reconoces

El mostrador servirá de pañuelo
Cualquiera verá el color del alcohol
Una vez más te reirá de ti mismo
Otra vez más esconderás el dolor
Suggest correction
Give kudos to tab author, rate the tab!
1 2 3 4 5
comments
print report bad tab
guest
Wanna post a correction for this tab? Suggest correction