Oops, an error
Loading. Please wait.
5 views 1 this week
no commentswrite comment
1 2 3 4 5
3 more votes to show rating
add to favorites
launch autoscroll
font size
0
reset
how to read this tab
guitar tuner
×
Best way to learn
"Verano"
Autoscroll
slow
fast
+/-
esc
set tempo
stop
Intro: F#-E-D-C#-B-A-C#

D--11----11-11----11-9-----9-9-11-11-9-9------------
A----9-12-----9-12----12-12--------------12-12-11-11--7-

--11----11-11----11-9-----9-9-11-11-------------
----9-12-----9-12----12-12----------12-12-11-11-


F#                    B       D
   Entonces soy el viento
                   E
corriendo por la playa
            F#               B
los restos de el barco encallado
          D          E          F
soy la espuma que brilla en el mar


PUNTEO INICIAL NUEVAMENTE X 2


F#                  B      D
   El cielo mas cerrado
              E
horizontes naranja
            F#
lluvia con sol
                B
esperando el verano
         D              E      F#
me atraviesas con tus pasos y tu
     F#
tu pelo mojado


D--11----11-11----11-9-----9-9-11-11-------------
A----9-12-----9-12----12-12----------12-12-11-11-

-11-9-7---7--11-9-7--7--11-9-7--7-7-7
--------9--9-------9--9-------9------11-11

Despues hace un jugueteo loco, pero con estas notas como base.
Suggest correction
Give kudos to tab author, rate the tab!
1 2 3 4 5
comments
print report bad tab
guest
You may want to rate the tab now too:
select rating
Wanna post a correction for this tab? Suggest correction