Oops, an error
Loading. Please wait.

Vestida Para Matar Bass

28 views 1 this week
no commentswrite comment
1 2 3 4 5
3 more votes to show rating
add to favorites
launch autoscroll
font size
0
reset
guitar tuner
×
Best way to learn
"Vestida Para Matar"
Autoscroll
slow
fast
+/-
esc
set tempo
stop
Acá les dejo el Tab de bajo para
"Vestida para matar", disfrútenlo.

Afinación: E A D G

INTRO:

G|---------|
D|-7-5-4-5-|
A|---------|
E|---------|

G|-------------------------|
D|-----------------7-5-4-5-|
A|-7-7-7-7-7-4-4-4---------|   (X2)
E|-------------------------|

G|-------------------------|
D|-----------------7-5-4-5-|
A|-------------------------|   (X2)
E|-5-5-5-5-5-7-7-7---------|

G|-------------------------|
D|-----------------7-5-4-5-|
A|-7-7-7-7-7-4-4-4---------|   (X2)
E|-------------------------|

G|-------------------------|
D|-----------------7-5-4-5-|
A|-------------------------|
E|-5-5-5-5-5-7-7-7---------|

G|---------------------|
D|---------------------|
A|---------------------|
E|-5-5-5-5-5-7-7-7-7-7-|

G|-------------------|
D|-------------------|
A|-4-4-4-4-4x--------|
E|------------777777-|

CORO:

G|---------------------------------
D|---------------------------------
A|-7-7-7-7-7-7-7-7-2-2-2-2-2-2-2-2-
E|---------------------------------

----------------------------------------|
----------------------------------------|
4-4-4-4-4-4-4-4-------------------------|
----------------5-5-5-5-5-5-5-5x-777777-|


G|---------------------------------
D|---------------------------------
A|-7-7-7-7-7-7-7-7-2-2-2-2-2-2-2-2-
E|---------------------------------

----------------------------------------------|
----------------------------------------------|
2-3-4-4-4-4-4-4-4-4-4-------------------------|
----------------------5-5-5-5-5-5-5-5x-777777-|

G|-------------------------|
D|-----------------7-5-4-5-|
A|-7-7-7-7-7-4-4-4---------|
E|-------------------------|

G|-------------------------|
D|-----------------7-5-4-5-|
A|-7-7-7-7-7-4x------------|
E|-------------------------|

G|-------------------------|
D|-------------------------|
A|-7-7-7-7-7-4-4-4-4-4-----|   (X2)
E|-------------------------|

G|-------------------------|
D|-----------------7-5-4-5-|
A|-------------------------|   (X2)
E|-5-5-5-5-5-7-7-7---------|

G|-------------------------|
D|-----------------7-5-4-5-|
A|-7-7-7-7-7-4-4-4---------|   (X2)
E|-------------------------|

G|-------------------------|
D|-----------------7-5-4-5-|
A|-------------------------|
E|-5-5-5-5-5-7-7-7---------|

G|---------------------|
D|---------------------|
A|---------------------|
E|-5-5-5-5-5-7-7-7-7-7-|

G|-------------------|
D|-------------------|
A|-4-4-4-4-4x--------|
E|------------777777-|

CORO:

G|---------------------------------
D|---------------------------------
A|-7-7-7-7-7-7-7-7-2-2-2-2-2-2-2-2-
E|---------------------------------

----------------------------------------|
----------------------------------------|
4-4-4-4-4-4-4-4-------------------------|
----------------5-5-5-5-5-5-5-5x-777777-|

G|---------------------------------
D|---------------------------------
A|-7-7-7-7-7-7-7-7-2-2-2-2-2-2-2-2-
E|---------------------------------

------------------------------------------------------|
------------------------------------------------------|
2-3-4-4-4-4-4-4-4-4-4---------------------------------|
----------------------5-5-5-5-5-5-5-5-7-7-7-7-7-7-7-7-|


SOLO DE GUITARRA

G|---------------------------------
D|---------------------------------
A|-7-7-7-7-7-7-7-7-2-2-2-2-2-2-2-2-
E|---------------------------------

--------------------------------------------------|
--------------------------------------------------|
4-4-4-4-4-4-4-4-----------------------------------|
----------------5-5-5-5-5-5-5-5-7-7-7-7-7-7-7-7-7-|

CORO:

G|---------------------------------
D|---------------------------------
A|-7-7-7-7-7-7-7-7-2-2-2-2-2-2-2-2-
E|---------------------------------

----------------------------------------------|
----------------------------------------------|
2-3-4-4-4-4-4-4-4-4-4-------------------------|
----------------------5-5-5-5-5-5-5-5x-777777-|

OUTRO:

G|-------------------------|
D|-----------------7-5-4-5-|
A|-7-7-7-7-7-4-4-4---------|   (X2)
E|-------------------------|

G|-------------------------|
D|-----------------7-5-4-5-|
A|-------------------------|
E|-5-5-5-5-5-7-7-7---------|

G|--------------|
D|--------------|
A|--------------|
E|-5-5-5-5-5-7x-|
Suggest correction
Give kudos to tab author, rate the tab!
1 2 3 4 5
comments
print report bad tab
guest
You may want to rate the tab now too:
select rating
Wanna post a correction for this tab? Suggest correction