Oops, an error
Loading. Please wait.

Viene Cantando Tab

16 views 1 this week
no commentswrite comment
1 2 3 4 5
3 more votes to show rating
add to favorites
launch autoscroll
font size
0
reset
how to read this tab
guitar tuner
Autoscroll
slow
fast
+/-
esc
set tempo
stop
Help us to improve Ultimate-Guitar.com Take our survey!
×
Intro

e|-----0--0--------------------------0--0------------------3--
B|-----0----0----3/5-3-3--3--3-------0----0----3/5-3-3--3--3--
G|-4/2-0-------0-------4--5--4---4/2-0-------0-------4--5--4--
D|-5/4-2---------------5--5--5---5/4-2---------------5--5--5--
A|-----2-----------------------------2---------------------5--
E|-----0-----------------------------0---------------------3--

        Em         G
e|---------------------
B|-------0-------------
G|-------0-------------
D|-------2----2--0-----
A|-------2---------2---
E|-3-2---0---------3---


       G
Un destello de plata en la inmensidad
          C     D          G
es el furioso ruido del metal
       C        D           G      Em
es el filo que corta las espigas
       C         D           G
es el coro que anuncia lo fatal

Dicen que anda con vestido de domingo
doce rosas adornando su sombrero
como una novia despechada
dicen que busca al que la engañó

Em                    G
  La muerte viene cantando
Em                    G
  de lejos se oye su voz
Em                    G
  cabalgando por los cerros
D                                          Em
  viene a terminar, a terminar lo que empezó

        G         Em          G
e|-----------------0------------
B|-----------------0------------
G|-----------------0------------
D|-----------------2------------
A|---3--2----------2-------3--2-
E|------3-----3-2--0----------3-

Hay tanto que el tiempo no puede borrar
recuerdos que no quieren ser pasado
que se vuelven carne en la memoria
esperando que se escriba otro final

Un destello de plata en la inmensidad
es el furioso ruido del metal
es el filo que corta las espigas
es el coro que anuncia lo fatal


La muerte viene cantando
de lejos se oye su voz
cabalgando por los cerros
viene a terminar, a terminar...

La muerte viene cantando
de lejos se oye su voz
cabalgando por los cerros
viene a terminar, a terminar lo que empezó
Suggest correction
Give kudos to tab author, rate the tab!
1 2 3 4 5
comments
print report bad tab
guest
You may want to rate the tab now too:
select rating
Wanna post a correction for this tab? Suggest correction