Oops, an error
Loading. Please wait.

Así Tab

version 2
version 2

Whole song

11 views 1 this week
no commentswrite comment
1 2 3 4 5
3 more votes to show rating
add to favorites
launch autoscroll
font size
0
reset
how to read this tab
guitar tuner
×
Best way to learn
"Así"
Autoscroll
slow
fast
+/-
esc
set tempo
stop
Hola amigos, esta es la version que hace trula del clasico de sandro.
creo que esta bastante completo, alguna duda alevoodoo@

INTRO:
E------------------------------
B------------------------------
G---7-9-10-/12-10-9-7--/14~---
D------------------------------
A------------------------------
E------------------------------

      Dm   Dm-7         Dm7     Dm7            E      E
   Así,        Como una rosa deshecha por el viento
E-----10---10-----------10------10-------------12-----12--------
B-----10---10-----------10------10-------------12-----12--------
G-----10---10-----------10------10-------------13-----13--------
D-----12---11-----------10------10-------------14-----14--------
A---------------------------------------------------------------
E---------------------------------------------------------------
      Gm   Gm-7          Gm7       A         Dm     Dm
   Así,         Como una hoja reseca por el sol
E-----10---10------------10--------12--------10-----10---------
B-----11---11------------11--------14--------10-----10---------
G-----12---11------------10--------14--------10-----10---------
D--------------------------------------------12-----12---------
A--------------------------------------------------------------
E--------------------------------------------------------------
      D     D             D7      D7             Gm      Gm
  Así,       Como se arroja de costado un papel viejo
E-----10---10------------10-------10-------------10------10-----
B-----10---10------------10-------10-------------11------11-----
G-----11---11------------11-------11-------------12------12-----
D-----12---12------------10-------10----------------------------
A---------------------------------------------------------------
E---------------------------------------------------------------
       Dm   Dm              E    E              A    A
   Así,         mi alma tu imagen     arrojó
E------10---10--------------12---12-------------12---12---------
B------10---10--------------12---12-------------12---12---------
G------10---10--------------13---13-------------14---14---------
D------12---12--------------14---14-----------------------------
A---------------------------------------------------------------
E---------------------------------------------------------------
      Dm   Dm-7         Dm7        Dm7          E      E
   Así,         como se marcha la noche con el día
E-----10---10-----------10---------10-----------12-----12-------
B-----10---10-----------10---------10-----------12-----12-------
G-----10---10-----------10---------10-----------13-----13-------
D-----12---11-----------10---------10-----------14-----14-------
A---------------------------------------------------------------
E---------------------------------------------------------------
      Gm   Gm-7          Gm7       A         Dm     Dm
   Así         como se aleja un velero en altamar
E-----10---10------------10--------12--------10-----10---------
B-----11---11------------11--------14--------10-----10---------
G-----12---11------------10--------14--------10-----10---------
D--------------------------------------------12-----12---------
A--------------------------------------------------------------
E--------------------------------------------------------------
    D     D             D7      D7             Gm      Gm
  Así,        como se escapa el agua entre los dedos
E---10----10------------10------10-------------10------10------
B---10----10------------10------10-------------11------11------
G---11----11------------11------11-------------12------12------
D---12----12------------10------10-----------------------------
A--------------------------------------------------------------
E--------------------------------------------------------------
       Dm   Dm               A    A           Dm   Dm   D    D
    Así,         te dejé ir...      sin meditar...
E------10---10--------------12---12-----------10---10---10---10---
B------10---10--------------14---14-----------10---10---10---10---
G------10---10--------------14---14-----------10---10---11---11---
D------12---12--------------------------------12---12---12---12---
A-----------------------------------------------------------------
E-----------------------------------------------------------------

Estribillo:

     Gm                 C                      F
Más hoy, que estoy tan solo y tan cansado de llorar
          D                       Gm
Quiero saber si tú querrías regresar
            C                      F
Junto a mi lado para amarnos otra vez
    Gm                      A                        Dm
 Tal vez,       estés pensando que no quiera ya de ti
E-----10-----10-------------12---------------12------10-----10--
B-----11-----11-------------14---------------14------10-----10--
G-----12-----12-------------14---------------14------10-----10--
D----------------------------------------------------12-----12--
A---------------------------------------------------------------
E---------------------------------------------------------------
La eléctrica... entre Gm y A.
E-------------------------
B-------------------------
G--/10~-------3-2-3~-----
D-------------------------
A-------------------------
E-------------------------
      Dm                     E
Ese calor que alguna vez yo te pedí
E------10-------------10-----------12---12----
B------10-------------10-----------12---12----
G------10-------------10-----------13---13----
D------12-------------12-----------14---14----
A---------------------------------------------
E---------------------------------------------
           Gm    A      Dm         (A# A Dm) los marca el teclado.
 Y que después      abandoné
E----------10---12-------10-----10---------
B----------11---14-------10-----10---------
G----------12---14-------10-----10---------
D------------------------12-----12---------
A------------------------------------------
E------------------------------------------

SOLO
E------------------------------------------------------------------------
B----------------------------------------------13~----15~--15-13/-15~/-
G------------------------------12~------12-14~---------------------------
D---/12~---x12-15~----/12-15---------15----------------------------------
A------------------------------------------------------------------------
E------------------------------------------------------------------------

E------19-17-16~--16~--19-16~--
B--15--------------------------
G-------------------------------
D-------------------------------
A-------------------------------
E-------------------------------

(Estribillo)

FINAL
E-----------------------------------8-------
B---8^--(6)-8^--(6)------8^--(6)--8---6-----
G-------------------7~------------------7~--
D-------------------------------------------
A-------------------------------------------
E-------------------------------------------
Queda muy bien con guitarra limpia y a partir del estribillo distorsionada.
Suggest correction
Give kudos to tab author, rate the tab!
1 2 3 4 5
comments
print report bad tab
guest
You may want to rate the tab now too:
select rating
Wanna post a correction for this tab? Suggest correction