Oops, an error
Loading. Please wait.

Usted Tab

33 views 1 this week
no commentswrite comment
1 2 3 4 5
3 more votes to show rating
add to favorites
launch autoscroll
font size
0
reset
how to read this tab
guitar tuner
×
Best way to learn
"Usted"
Autoscroll
slow
fast
+/-
esc
set tempo
stop
2 guitarras se necesitan para esta canción...
1er guitarra: rasgueos y arpegios...
2da guitarra: solos y arpegios tambien...

F       133211
Gm      355333
Cadd9   x32030
C       x35553
Dm      x57765
A#      x13331


INTRO
F  C-Gm

El Arpegio en Cadd9 va

e|---------------------------
B|-------3-----------3-------
G|-----0---0-------0---0-----
D|---2-----------2-------2---
A|-3-----------3-------------
E|---------------------------

El Arpegio en Cadd9/C va

e|---------------------------
B|-------3-----------1-------
G|-----0---0-------0---0-----
D|---2-----------2-------2---
A|-3-----------3-------------
E|---------------------------

El Arpegio en Cadd9 va

e|-------------------0-------
B|-------3-------------------
G|-----0---0-------0---0-----
D|---2-----------2-------2---
A|-3-----------3-------------
E|---------------------------


Gm    F                Cadd9
 Su risa es màs que soñada
Gm     F                  Cadd9-C
 sus brazos los que me atrapan
Gm      F             Cadd9       Gm   C
 su mirada lo que me mata... y es usted.

(Segunda guitarra)
                   Gm  F  Cadd9               Gm F Cadd9-C
e|----------9/10-----------|----------------15-----------|
B|-------8-----------------|---8/10--10/11--15-----------|
G|--9-10-------------------|-----------------------------|

                         Gm F Cadd9                 Gm C
e|---------------15--------|-----------------------------|
B|---------10-11----13/15--|-------------10--11----------|
G|-9-10-12-----------------|-------10/12--------10/12----|

Gm    F                   Cadd9
 Su cuerpo es como de guitarra
Gm F                     Cadd9-C
 exacto pa` meter en mi cama
Gm     F                     Cadd9
 y tocarlo cuando se me antojara
       Gm         C
y es usted, es usted...

CORO
F              C               Dm
 Que caigo al suelo, desde el cielo aquel
   A#                     F        C            Dm  A#
 pierdo hasta el aire imagine usted, yo sin respirar.
          F  C  Dm
ay ay ay
A#             F        C          Dm  A#
 ay ay ay ay ay aaaaaaay, sin respirar
               F        C          Dm  A#
 ay ay ay ay ay aaaaaaay, sin respirar
               F        C          Dm  A#
 ay ay ay ay ay aaaaaaay, sin respirar

Intro (otra vez)
Gm    F                 Cadd9 Gm        F                  Cadd9-C
 Hagame el favor de quererme, ò el revolver favor de alcanzarme
Gm       F                   Cadd9
soy su atento y seguro servidor.
       Gm         C
y es usted, es usted...

CORO
F              C               Dm
 Que caigo al suelo, desde el cielo aquel
   A#                     F        C            Dm  A#
 pierdo hasta el aire imagine usted, sin respirar.
F              C             Dm
 Que escapo al cielo, desde el suelo aquel.
     A#                 F         C         Dm  A#
 si roza mi cuerpo, imagine usted, sin respirar
               F        C          Dm  A#
 ay ay ay ay ay aaaaaaay, sin respirar
               F        C          Dm  A#
 ay ay ay ay ay aaaaaaay, sin respirar, ay ay ay ay

(En este pedazo se toca razgueado pero con notas secas)
F             C              Dm          A#
 Y es la dueña de la direccion que le falta a este corazon

(Aca ya sigue normal)
F        C           Dm  A#
         sin respirar
               F        C          Dm  A#
 ay ay ay ay ay aaaaaaay, sin respirar
               F        C          Dm  A#
 ay ay ay ay ay aaaaaaay, sin respirar
               F        C          Dm  A#
 ay ay ay ay ay aaaaaaay, sin respirar
               F        C          Dm  A#
 ay ay ay ay ay aaaaaaay, sin respirar
               F        C
 ay ay ay ay ay aaaaaaay

¡¡¡Viva Chichi!!!
Suggest correction
Give kudos to tab author, rate the tab!
1 2 3 4 5
comments
print report bad tab
guest
You may want to rate the tab now too:
select rating
Wanna post a correction for this tab? Suggest correction