Oops, an error
Loading. Please wait.

Acrobot Chords

22 views 1 this week
no commentswrite comment
1 2 3 4 5
3 more votes to show rating
add to favorites
launch autoscroll
font size
0
reset
transpose
0
reset
display chords
guitar tuner
×
Best way to learn
"Acrobot"
Autoscroll
slow
fast
+/-
esc
set tempo
stop
Acrobot

(Fig 1)
0--0--0--0--0--0--0--0--0-------
0--0--0--0--0--0--0--0--0-------
2--2--2--5--5--5--4--4--4-------
2--2--2--5--5--5--4--4--4-------
0--0--0--3--3--3--2--2--2-------
0--0--0--0--0--0--0--0--0-------

(Fig 1)
Agarrenlo
(Fig 1)
Agarrenlo Agarrenlo
(Fig 1)
uouo
(Fig 1)
Antes era un dragon
(Fig 1)
Ahora es un robot
(Fig 1)
Es un robot Es un robot
(Fig 1)
Y no le importa nada mas
(Fig 1)
Uouo
(Fig 1)
Se inicio la expansión
(Fig 1)
Agarren al robot

  A                 E
Y no me van a hacer caer bajo el control
  A                 E
caer bajo el control de la simulacion
  A                 E
Y no me van a hacer caer bajo el control
  A                 E
Llevame a mi...

(Fig 1)
renovacion
(Fig 1)
algun bajon
(Fig 1)
u now its a wrecked show
(Fig 1)
im gonna do it to u
(Fig 1)
I wanna know

0--0--0--0--0--0----0--0--0--0--0--0----   x2
0--0--0--0--0--0----0--0--0--0--0--0----
2--2--2--4--5--4----2--2--2--4--5--9----
2--2--2--4--5--4----2--2--2--4--5--9----
0--0--0--2--3--2----0--0--0--2--3--7----
0--0--0--0--0--0----0--0--0--0--0--0----

uababbaba.....(con bajo)

(Fig 1)
Agarrenlo
(Fig 1)
Agarrenlo Agarrenlo
(Fig 1)
uouo
(Fig 1)
Antes era un dragon
(Fig 1)
Ahora es un robot

  A                 E
Y no me van a hacer caer bajo el control
  A                 E
caer bajo el control de la simulacion
  A                 E
Y no me van a hacer caer bajo el control

(Fig 1)
Control
(Fig 1)
Control
(Fig 1)
El control
(Fig 1)
Yo soy acrobot
Suggest correction
Give kudos to tab author, rate the tab!
1 2 3 4 5
comments
print report bad tab
guest
You may want to rate the tab now too:
select rating
Wanna post a correction for this tab? Suggest correction