Oops, an error
Loading. Please wait.

Adicto Chords

67 views 1 this week
no commentswrite comment
1 2 3 4 5
3 more votes to show rating
add to favorites
×
Save as Personal and add changes to this tab that will be seen only by you. Learn more ›
×
You can save this tab as Personal to edit and correct it or add notes. All changes will be seen only by you. Learn more »
save as personal
new!
launch autoscroll
font size
0
reset
transpose
0
reset
display chords
guitar tuner
Autoscroll
slow
fast
+/-
esc
set tempo
stop
Strumming
There is no strumming pattern for this song yet. and get +5 IQ
Intro

|------------------------------------
|------------------------------------
|------------------------------------
|-------------------55555/9------------
|--5-7/9-7-------7-5-------99999/12----
|---------5-7/9-9---------------------

Intro 2:
|------------------------------------
|------------------------------------
|------------------------------------
|---7---7--7--7--7--7--7--7----------
|--5-5/7-9------7--9-10--7-----------
|-----------10-----------------------

D
Estoy adicto a ti nena
       A          D
no me puedo desprender
             G
me va a dar pena
             A
si no te puedo tener

D
y yo se que esta mal
       A            D
que si no va a funcionar
       G                A
si te vas quien me va a defender
       Gm
si te vas quien mas,
           A
quien me puede defender
Intro 2


D
estoy adicto a ti nena
      A            D
y te veo todo el tiempo
             G                       A
aunque extrano estar libre como el viento
D
yo se que esta mal
           A          D
y hasta en la universidad
          G                 A
si no estas ya no encuentro que hacer
         Gm                          A
si no estas me da, me da por enloquecer

D F#m Bm G (x 4)

          D        F#m    Bm  G
de noche no puedo ni dormir
       D        F#m  Bm  G
no encuentro la calma
D            F#m Bm  G
no puedo ni dormir
D            F#m Bm  G
dentro de mi cama

D A D G A
D A D G A     VIENTOS
Gm A

          D        F#m    Bm  G
de noche no puedo ni dormir
    D         F#m  Bm  G
la noche en mi cama
D           F#m Bm  G
no puedo ni dormir
        D           F#m Bm  G   A
me encomiendo a una santa
                 D      A   D   G       D
la virgen de cocharcas

|----------------
|-----------7----
|-----------7----
|------7----7----
|---7/9--9--9----
|----------------

        D
estoy adicto a ti nena
        A       D
no me puedo detener
        G                     A
es una pena que te quieras esconder
    D
no se porque sera
               A          D
si es que extrano a mi mama
       G                 A
si te vas me va a dar alzheimer
       Gm                A
y al atardecer no me pueden proteger

Intro 2

Final:  D - A

|------------------------
|----5-7--8--5-7--7-7-5--
|-*--7-7--7--7-7--7-7-7--  *Palm Mute
|-*--7-7--7--7-7--7-7-7--
|------------------------
|------------------------

Fin: D

|-------------------
|----8-7--5--7------
|-*--7-7--7--7------  *Palm Mute
|-*--7-7--7--7------
|------------5------
|-------------------


Todos los acordes con  comentarios al correo de contacto.
Suggest correction
Give kudos to tab author, rate the tab!
1 2 3 4 5
comments
print report bad tab
guest
Wanna post a correction for this tab? Suggest correction