Oops, an error
Loading. Please wait.

La Chola Tab

67 views 3 this week
no commentswrite comment
1 2 3 4 5
3 more votes to show rating
add to favorites
×
Save as Personal and add changes to this tab that will be seen only by you. Learn more ›
×
You can save this tab as Personal to edit and correct it or add notes. All changes will be seen only by you. Learn more »
save as personal
new!
launch autoscroll
font size
0
reset
how to read this tab
guitar tuner
Autoscroll
slow
fast
+/-
esc
set tempo
stop
--------------------------------------------------------------------------
--------------------------------------------------------------------------
--------------------------------------------------------------------------
------0-0-0-0--3----------------0-0-0-0--3-----------------------0-3-0-0-0
0--3--------------0-0-0-0-0--3-------------0-0-0-0--0---------------------
------------------------------------------------------4--3-3-3-3----------

Dm Am Dm Am Gm Dm Gm Dm

             Dm
Quiero una chola jet set
          Gm          Em                Am
soy un blanco pitucón - qué contradicción


         Dm
mi gente no la puede ver
           Gm            Em                Am
y es la mejor del callejón- qué contradicción


            Em               Am
cuando hay pura carne blanca no me siento bien
Em                    Am
yo soy chacalón de rave


             Dm
quiero una chola jet set
          Gm          Em                Am
soy un blanco pitucón - que contradicción


         Dm
mi gente no la puede ver
           Gm            Em                       Am
y es la mejor del callejón - y del jirón de la unión


       Em                Am
no la pude ver calata - no la pude ver
       Em                       Am
en verdad no la quise ver muy bien

Dm  Am

(SKA)
Dm       Gm     Em        Am

             Dm       Gm Em               Am
quiero una chola jet set - en mi habitación
             Dm       Gm Em        Am
quiero una chola jet set - oh oh oh
             Dm
quiero una chola jet set
                      Gm
que me cante una canción
                    Em
que me cante en inglés - como fats domino- uoo

Dm       Gm      Em       Am
--------------------------------------------------------
--3--3--3-6-3-6-3--3--3--3-6-3-6-3--3--3--3-6--5--3-2--3
--------------------------------------------------------
--------------------------------------------------------
--------------------------------------------------------
--------------------------------------------------------

------------------------------------------
------------------------------------------
--2--5--3--2--0--2--3--2--0--2--0---------
-----------------------------------3--2--0
----------------------------------------
------------------------------------------

-------------------------------------------------------
--6--5--3--2--3----6--5--3--2--3----6---5---3---2---3--
----------------2----------------2---------------------
-------------------------------------------------------
-------------------------------------------------------
-------------------------------------------------------

      Em               Am                      Em                    Am
y si voy a tener sexo va a ser con condón-prefiero estar contigo en la
                Em                    Am
revolución-prefiero estar contigo bailando el tropezón

Dm     Am
Uoooh oo  [x3]
Gm     Em

canta mi chola jet set...
Suggest correction
Give kudos to tab author, rate the tab!
1 2 3 4 5
comments
print report bad tab
guest
Wanna post a correction for this tab? Suggest correction