Oops, an error
Loading. Please wait.

Overdose Tab

40 views 3 this week
no commentswrite comment
1 2 3 4 5
3 more votes to show rating
add to favorites
launch autoscroll
font size
0
reset
how to read this tab
guitar tuner
×
Best way to learn
"Overdose"
Autoscroll
slow
fast
+/-
esc
set tempo
stop
*La verdad no estoi seguro si C/G es lo correcto pero
 lo toco asi y suena bien:

E 2
B 5
G 4     C/G
D 5
A 2
E x


C  Am

C                    Am
    I got a little overdose
C                   Am
    I got a little overdose
          C               Am
and it made me feel my body
      C          Am
made me feel a bomb
         C           Am
it made me feel my body
           F            C
like i wish i?d never know
           F            C
like i wish i?d never know
oh baby.

C Amx2
bajo al ultimo(e 5-3-5-3)

C                    Am
    I fell a little comatose
C                  Am
    I fell a little comatose
         C             Am
and i can?t remember
           C            Am
what i was doing here before
      C           Am
i can?t rebember
        C
the 1, 2, 3
       Am
-the world drug free-
          F                C
but just for a little while
            F                 C
yeah, just for a little while
             F                    C
oh baby just for a little while
oh baby.

e ------------------------------
b ------------------------------
g -------7---------9--7---------
D 7-9-10---10-9-10-------9------   x3
a ------------------------------   la 3era asta el 3er '10'
e ------------------------------

e ---------------------
b ---------------------
g -9---------7---------
d --10-9-10---10-9-7---  x3 (rapido)
a ---------------------
e ---------------------

                        -  -  -  -  -  -  -  -

e ------------------------------
b ------------------------------
g -------7---------9--7---------
d 7-9-10---10-9-10-------9------
a ------------------------------
e ------------------------------  (a)

e --------------------------------------------
b --------------------------------------------
g -------7---------9--7---9---------7---------
d 7-9-10---10-9-10---------10-9-10---10-9-7---
a --------------------------------------------
e --------------------------------------------  (b)

e --------------------------
b --------------------------
g -------7------------------
d 7-9-10---10-9-10----------
a --------------------------
e --------------------------  (c)

                         -  -  -  -  -  -  -  -


toca (a)

Am                         F               C
      why don?t you get on top with me...
             C/G                   G
when i go into a better form?.....

toca (b)

Am              F                    C
     i know exactly what goes on...
                   C/G
when you?re calm, ...
volcano...
G
      hey now...

toca (c)

Am                 F
     i know exactly how you feel ..


C                  Am
    i got a little overdose
C                  Am
    i got a little overdose
C                     Am
 i can?t remember
C                                Am
     i need a picture that i?ll see
C                Am
i can?t remember

          F                    C
but just for a little while
            F                    C
yeah just for a little while
          Em
oh baby
F                        C
things are not so hard
 F                       C
just for a little while
oh baby.

e ---------12--10---------------121212-101010--------
b 10-12-13--------12---10-12-13---------------121212-
g ---------------------------------------------------
d ---------------------------------------------------
a ---------------------------------------------------
e ---------------------------------------------------

e ---------10---------------
b 10-12-13----13-12-13------
g --------------------------
d --------------------------
a --------------------------
e --------------------------

e -12----------10-------10--
b ----13-12-13----13-12-----
g --------------------------
d --------------------------
a --------------------------
e -------------------------- x3
los 2 anterioresx2

i know exactly what goes on...
bajo: (a 00-33-55-77-88-77-55-33-22--0--8-7-55-3)

e -----------------------------
b -----------------------------
g -------7---------9-----------
d 7-9-10---10-9-10-------------
a -----------------------------
e -----------------------------

                       -  -  -  -  -  -  -  -

e ---------------------
b ---------------------
g -9---------7---------
d --10-9-10---10-9-7---  x3 (rapido)
a ---------------------
e ---------------------  (d)

e --------------------------
b --------------------------
g -------7------------------
d 7-9-10---10-9-10----------
a --------------------------
e -------------------------- (e)

                       -  -  -  -  -  -  -  -


       toca(d)
       C        C/G                G
Follow me for in time you?ll be lonesome

toca (E)                           toca (D)

Am           F           C         C/G
i know exactly how you feel, on your own
           G
you bet on, hey now

toca(e)                                  toca(d)

Am                          F               C
       why don?t you get on top with me?
    C/G                         G
One of these days i?ll find my god

toca (a)

Am                        F                 C      C/G    G
       i know that she won?t come at all

toca (c)

Am                   F                  C     C/G       G
     why don?t you bet on something wrong?

G5..

e -----------
b -----------
g -----------
d --2-2/3-2--
a -5---------
e 3---------- x2

A5   B5    C5  D5     A5 (agudo)

cualquier cosa sugerencia,pedido noc algo a lguevarah@
QUE VIVA EL ROCK PERUANOOOOO!!!!!
Suggest correction
Give kudos to tab author, rate the tab!
1 2 3 4 5
comments
print report bad tab
guest
You may want to rate the tab now too:
select rating
Wanna post a correction for this tab? Suggest correction