Oops, an error
Loading. Please wait.

Más Loca Que Yo Bass

1 view 1 this week
no commentswrite comment
1 2 3 4 5
3 more votes to show rating
add to favorites
launch autoscroll
font size
0
reset
guitar tuner
×
Best way to learn
"Más Loca Que Yo"
Autoscroll
slow
fast
+/-
esc
set tempo
stop
Versos
G|----------------|----------------|-----------6-9-|
D|----------------|----------------|-----6-7-9-----|
A|-2-3-4-3--5-4-2-|-2-3-4-5--5-4-5-|-7-9-----------|
E|----------------|----------------|---------------|
 |  CUATRO  VECES |   TRES   VECES |

Coros
G|--------|x4
D|--------|
A|--------|
E|-5--5-5-|

Puente ('Mas loca que yo...')
G|---------------|x8
D|---------------|
A|-5-5-5-----3-4-|
E|-------5-7-----|

Solo de Guitarra
G|----------------|-----------6-9-|
D|------------1-2-|-----6-7-9-----|
A|-2-3-4-3--4-----|-7-9-----------|
E|----------------|---------------|
 |  SIETE  VECES  |
Suggest correction
Give kudos to tab author, rate the tab!
1 2 3 4 5
comments
print report bad tab
guest
You may want to rate the tab now too:
select rating
Wanna post a correction for this tab? Suggest correction