Oops, an error
Loading. Please wait.

En La Cueva De Alí Tab

14 views 1 this week
no commentswrite comment
1 2 3 4 5
3 more votes to show rating
add to favorites
launch autoscroll
font size
0
reset
how to read this tab
guitar tuner
Autoscroll
slow
fast
+/-
esc
set tempo
stop
Help us to improve Ultimate-Guitar.com Take our survey!
×
Intro:

En MI?
6--0--0-0--0-0-0--//
5---2----2-3--3-3-//    x2

Intro al tema:

En la cueva de Alí..

6-----------------------------------------
5-----------------------------------------
4------------------2----------------------
3--1-2-4-4-4-4-4-1---2-4-5-5-5-5-5-4-2----

6---------------------------------
5---------------------------------
4------------------2-----------2--
3--1-2-4-4-4-4-4-1---2-2-2-2-1----

6------------------------------
5------------------------------
4---------2--------2--------2--
3--2-2-2-2--2-2-2-2--2-2-2-2---

6---------------------------/
5------------------3-2-0----/
4--2-2--2-2--3-2-0----------/
3---------------------------/


Por favor no me pisen la vi..

6-----------------------------------------
5--0-2-3--0-0-2-3-0-3---------------------
4---------------------0-2-3--0-0-2-3-0-3--

5----------------------/
4----------------------/
3--0-2-4--0-0-2-4-0-4--/

Esto es todo el punteo que tiene el tema.
Se requiere un poco de velocidad para esto.
Espero que halla sido claro. Abrazo a todos los hinchas de LOS TWIST.
Dudas o sugerencias: en Facebook: JUANI BRACHETTI
O e-mail a: 
Suggest correction
Give kudos to tab author, rate the tab!
1 2 3 4 5
comments
print report bad tab
guest
You may want to rate the tab now too:
select rating
Wanna post a correction for this tab? Suggest correction