Oops, an error
Loading. Please wait.

Pensé Que Se Trataba De Cieguitos Tab

67 views 3 this week
no commentswrite comment
1 2 3 4 5
3 more votes to show rating
add to favorites
launch autoscroll
font size
0
reset
how to read this tab
guitar tuner
×
Best way to learn
"Pensé Que Se Trataba De Cieguitos"
Autoscroll
slow
fast
+/-
esc
set tempo
stop
A
Era un sabado a la noche,tenia plata y hacia calor
        D
me dije,viejo,aprovecha sos joven
            A
y me fui al cine a ver una de terror
          E             D         A         E
sali a la calle,pare un taxi,y me fui,por ahi (...)

CONTINUA IGUAL


E             D         A         E
(..)Acto Seguido Me Invitaron A Subir Al Ford

Solo:
                      A

E |----5-9-9-9-9-7-9-7-9-7-9-7-9-/12--9-7-5|
B |-5-7------------------------------------|
G |----------------------------------------|


         D           A        E    D        A
E |9-7-5---5-10-------5-9----9-7---7-9-12-9-------|
B |------7--------7-5-----------------------10-10-|
G |-----------------------------------------------|


E |-----------------------------------|
B |-8-10-8-10-8-10-8------------------|
G |------------------9-7-9------------|

SIGUEN LOS MISMO ACORDES HASTA EL FINAL (A D E)

Escuchar la cancion para hubicar los tiempos del solo.
Despues sale facil
Suggest correction
Give kudos to tab author, rate the tab!
1 2 3 4 5
comments
print report bad tab
guest
You may want to rate the tab now too:
select rating
Wanna post a correction for this tab? Suggest correction