Oops, an error
Loading. Please wait.

Señor Juez Tab

54 views 1 this week
no commentswrite comment
1 2 3 4 5
3 more votes to show rating
add to favorites
launch autoscroll
font size
0
reset
how to read this tab
guitar tuner
Autoscroll
slow
fast
+/-
esc
set tempo
stop
Help us to improve Ultimate-Guitar.com Take our survey!
×
HOLA amigos aquí les traigo el tema de j-king y
maximan q esta buenísimo asi que inténtenlo se que les
va salir xq esta super sencilla
Y de paso quiero enviarle un beso a susi y
deicarle esta canción ya q x q no la busq la perdi pero aun t quiero


Intro:
     D         A         Bm      G            D      A
e/---2---------0---------2-------3------------2------0------
B/----3---------2---------3-------3-----------3------2------
G/-----4---------2---------4-------4----------4------2------
D/------0---------2---------4-------5---------0------2------
A/---------------------------------------------------0------
E/----------------------------------------------------------

   Bm     G
e/-2------3---
B/-3------3---
G/-4------4---
D/-4------5---
A/-2------5---
E/--------3---

  D
e/--2--2---2---------
B/--3---3-3----------
G/--2----2-----------
D/--0----------------
buenos dias sr juez

    A
e/--0--0---0---------
B/--2---2-2----------
G/--2----2-----------
D/--2----------------
A/--0----------------
he venido a confesarle

    Bm
e/--2--2---2---------
B/--3---3-3----------
G/--4----4-----------
D/--4----------------
A/--2----------------
he cometido un delito

    G
e/--3--3---3---------
B/--3---3-3----------
B/--4----4-----------
D/--5----------------
A/--5----------------
E/--3----------------
ud debe encarcelarme


    D
e/--2--2---2---------
B/--3---3-3----------
G/--2----2-----------
D/--0----------------
(de verdad no entiendo nada)

    A
e/--0--0---0---------
B/--2---2-2----------
G/--2----2-----------
D/--2----------------
A/--0----------------
bueno sin contar detalles

    Bm
e/--2--2---2---------
B/--3---3-3----------
G/--4----4-----------
D/--4----------------
A/--2----------------
a la mujer de mi vida

    G
e/--3--3---3---------
B/--3---3-3----------
B/--4----4-----------
D/--5----------------
A/--5----------------
E/--3----------------
le rompí el corazon


Desde esta parte comienza el rasgado


         D                A
entonces buscala buscala ya!
                        Bm
que no se te haga muy tarde
              G
y no pueda perdonarte
ni dar marcha atras..

D                        A
entonces buscala buscala ya!
                        Bm
que no se te haga muy tarde
                     G
mira que yo por cobarde
              D
perdi a mi amor
            A
ooh uohh ouoh
            Bm
perdi a mi amor
           G
ooh uohh ouoh
perdi a mi amor

   D                  A                  Bm
yo tampoco me atrevi a buscarla en el momento
      G             D           A
aunque nunca pude dejarla de amar
 Bm              G               D            A
poco a poco se convierte en mi enemigo el tiempo
 Bm                G
se la llevo sin vuelta atras

  D                A                 Bm
ay yo le pido a mi pana que no se ponga terco
           G
por ella pongase a luchar
     D                 A                    Bm
mas vale amor seguro que cuatrocientas corriendo
                G
(he dicho!) pongase a pensar

   D                  A
no se si mi condena será seguir solo
    Bm                      G
o sentenciarme a no volverla a ver
  D              A
yo solo estoy seguro
        Bm                 G
de que me arrepiento de su sufrimiento

         D                A
entonces buscala buscala ya!
                        Bm
que no se te haga muy tarde
              G
y no pueda perdonarte
ni dar marcha atras..

D                        A
entonces buscala buscala ya!
                        Bm
que no se te haga muy tarde
                     G
mira que yo por cobarde
              D
perdi a mi amor
            A
ooh uohh ouoh
            Bm
perdi a mi amor
           G
ooh uohh ouoh
perdi a mi amor


    D
e/--2--2---2---------
B/--3---3-3----------
G/--2----2-----------
D/--0----------------
y a pesar de los fracasos he encontrado el tiempo

    A
e/--0--0---0---------
B/--2---2-2----------
G/--2----2-----------
D/--2----------------
A/--0----------------
voy buscando su rastro detras de su aliento

    Bm
e/--2--2---2---------
B/--3---3-3----------
G/--4----4-----------
D/--4----------------
A/--2----------------
yo se que he fallado y aqui me arrepiento

    G
e/--3--3---3---------
B/--3---3-3----------
B/--4----4-----------
D/--5----------------
A/--5----------------
E/--3----------------
en fin
     D                 A
sin ella a mi la vida se me va perdiendo
 Bm                        G
si no la tengo a mi lado sintiendo su cuerpo
   D                     A
un corazon desolado que se esta muriendo
  Bm            G
y vuela y vuelve ma'
 D         A        Bm
que tu iluminas mi sendero
     G          D
y vuela y vuelve ma'
A       Bm         G
que nada es igual sin ti

         D                A
entonces buscala buscala ya!
                        Bm
que no se te haga muy tarde
              G
y no pueda perdonarte
ni dar marcha atras..

D                        A
entonces buscala buscala ya!
                        Bm
que no se te haga muy tarde
                     G
mira que yo por cobarde
              D
perdi a mi amor
            A
ooh uohh ouoh
            Bm
perdi a mi amor
           G
ooh uohh ouoh
perdi a mi amor


no hagas como hicieron j-king y el maximan
(perdi a mi amor)
culpables de perder este caso y este amor
(perdi a mi amor)
busca la tuya antes que se vaya ok?
que yo todavia estoy sufriendo por la mía
y no lo dejes..
los superheroes
y no no no no.. no no no no
santana!.. (ha ha ha)
Gocho! el lapiz de platino de verdad
oye jai el quimico romántico
los superheroes..

bueno este es mi primer tema q envio esto fue posible gecias
al apollo de mis amigos juan William y sobre todo de Miriam
q gracias a ti pude olviadar y volver a querer  gracias miriam
Suggest correction
Give kudos to tab author, rate the tab!
1 2 3 4 5
comments
print report bad tab
guest
You may want to rate the tab now too:
select rating
Wanna post a correction for this tab? Suggest correction