Oops, an error
Loading. Please wait.

No Me Rendiré Tab

19 views 3 this week
no commentswrite comment
1 2 3 4 5
3 more votes to show rating
add to favorites
launch autoscroll
font size
0
reset
how to read this tab
guitar tuner
Autoscroll
slow
fast
+/-
esc
set tempo
stop
Help us to improve Ultimate-Guitar.com Take our survey!
×
algo asi fue lo que pude sacar del intro

e--6/7--7--7--10--10--5--5--5---I
b--7/8--8--8--8---8---7--7--7---I
g-------------------------------I
d-------------------------------I
a-------------------------------I
e-------------------------------I

e--3--3--3--7--7--2--0--2-------I
b--5--5--5--8--8--3--3--3-------I
g-------------------------------I
d-------------------------------I
a-------------------------------I
e-------------------------------I

e------------3--3----------I-----------7--7--5--3--5I
b--5--5--5---------3--2--3-I--7--7--7---------------I
g--------------------------I------------------------I
d--------------------------I------------------------I
a--------------------------I------------------------I
e--------------------------I------------------------I

Esto se repite 2 veces en el intro. Luego del coro 
se repite con una pequeña diferencia ;P . 
Bueno suerte a 
Suggest correction
Give kudos to tab author, rate the tab!
1 2 3 4 5
comments
print report bad tab
guest
You may want to rate the tab now too:
select rating
Wanna post a correction for this tab? Suggest correction