Oops, an error
Loading. Please wait.

Daño Irreversible Tab

8 views 1 this week
no commentswrite comment
1 2 3 4 5
3 more votes to show rating
add to favorites
launch autoscroll
font size
0
reset
how to read this tab
guitar tuner
Autoscroll
slow
fast
+/-
esc
set tempo
stop
Help us to improve Ultimate-Guitar.com Take our survey!
×
Intro:

e||------9-----9---7---5---4---4---4---4------||
B||--/10----10-----9---7---5-----5---5--------||
G||-------------------------------------------||
D||-------------------------------------------||
A||-------------------------------------------||
E||-------------------------------------------||


e||-------------------------------------------||
B||-----7---7------5-------4---4---4----------||
G||--/8---8-----/6---6---4---4---4------------||
D||-------------------------------------------||
A||-------------------------------------------||
E||-------------------------------------------||


e||-------------------------------------------||
B||-------------------------------------------||
G||-----6---6---6-----4---4---4---------------||
D||--/7---7---7-----6---6---6-----------------||
A||-------------------------------------------||
E||-------------------------------------------||


riff 1


e||----------------------------------||
B||-----4-5-4-----------4-5-4--------||
G||---4-------4---4---4-------4--4---||
D||-6-----------6---5----------5-----||
A||----------------------------------||
E||----------------------------------||

e||----------------------------------||
B||-------4-5-4-----------4-5-4------||
G||-----4-------4---4---4-------4----||
D||---4-----------4---3-----------3--||
A||----------------------------------||X2
E||----------------------------------||


riff2
e||--------------------------------------||
B||----4-------4-------4--------4--------||
G||----4-4-----4-4-----4-4------4--------||
D||-6--6--6-5--5--5-4--4--4--3--3--------||
A||--------------------------------------||
E||--------------------------------------||


riff2 (x2)
Despierto tarde, rumor en la calle
Pasa otro año más extraño que clave
Las caricias me rebotan, yo soy solo de tu boca
Mis amigos me reprochan que de vuelta ya la hoja

riff1 (x2)
Dime que más ves en el camino,
Solo hay nubes negras un día domingo
El amor es para ti, como no lo es para mi
Y de nada servirá cuando caigan más de mil lágrimas.


Pre coro:

e||-------------------------------------------||   *
B||-----4--4--4-------------------------------||
G||-----6--6--6-------------------------------||
D||-----5--5--5-------4-6--6^--4-6------------||
A||-----6--6--6---4-6-------------------------||
E||-------------------------------------------||X2


riff2
Tan rápido te olvidas de mi
Cuéntame el secreto para poder salir
La champaña y los vinos, los hoteles del camino
Han llamado preguntando cuadno hay visita de amigos


riff1
Siendo un polizonte en tu cama
Incluso en la noche cuando alguien más te ama
El amor es para ti, como no lo es para mi
Y de nada servirá cuando caigan más de mil lágrimas


Pre coro:

                  Daño irreversible

e||-------------------------------------------||
B||-----4--4--4-------------------------------||
G||-----6--6--6-------------------------------||
D||-----5--5--5-------4-6--6^--4-6------------||
A||-----6--6--6---4-6-------------------------||
E||-------------------------------------------||X2


Coro:


RE#5                                        DO#5      SOL#5-SI5-DO#5-RE#5
Ya nadie sabe cuando lanzará pronto una próxima señal

MI DO#5-RE#5                                             DO#5
De amor confunde tanto el recuerdo y las promesas que tu cuerpo dió


RE#5       DO#5 RE#5      DO#5
Justo sobre mi, bajo mi nariz
RE#5            DO#5          RE#5           DO#5
Frente a los misterios que rodearon siempre a tu cama.


Riff1

Riff2 x2
Crees que puedes tocar mi tarsero?
Crees que peudes quemar con tu fuego

riff1 x2
Give me a reason to love you
El amor es para ti, como no lo es para mi
Y de nada servirá cuando caigan más de mil lágrimas.


Pre coro:

                  Daño irreversible

e||-------------------------------------------||
B||-----4--4--4-------------------------------||
G||-----6--6--6-------------------------------||
D||-----5--5--5-------4-6--6^--4-6------------||
A||-----6--6--6---4-6-------------------------||
E||-------------------------------------------||X2


Coro:


RE#5                                        DO#5      SOL#5-SI5-DO#5-RE#5
Ya nadie sabe cuando lanzará pronto una próxima señal

MI DO#5-RE#5                                             DO#5
De amor confunde tanto el recuerdo y las promesas que tu cuerpo dió


RE#5       DO#5 RE#5      DO#5
Justo sobre mi, bajo mi nariz
RE#5            DO#5          RE#5           DO#5
Frente a los misterios que rodearon siempre a tu cama.

Outro: RE#5 -  DO#5


Pd:escuchen la cancion y toquen la guitarra las notas
basicas no las se pero esas son los arreglos y todo ojala
les sirva y pronto subire mas temas de jaco ....
sigan pidiendo para que sea mas facil poder subirlos.
cualkier consulta agregen " janopezo@ "
Suggest correction
Give kudos to tab author, rate the tab!
1 2 3 4 5
comments
print report bad tab
guest
You may want to rate the tab now too:
select rating
Wanna post a correction for this tab? Suggest correction