Oops, an error
Loading. Please wait.

Se Crearon Para Tí Tab

20 views 1 this week
no commentswrite comment
1 2 3 4 5
3 more votes to show rating
add to favorites
×
Save as Personal and add changes to this tab that will be seen only by you. Learn more ›
×
You can save this tab as Personal to edit and correct it or add notes. All changes will be seen only by you. Learn more »
save as personal
new!
launch autoscroll
font size
0
reset
how to read this tab
guitar tuner
Autoscroll
slow
fast
+/-
esc
set tempo
stop
arpegiado bossa

Intro
Un Dos Un Dos Tres y

(Fig 1 x 3) (Fig 2)
Am D9/7 x 3 Am A#m7 Bm7 A#m7 Bm7 A#m7 Am
E||----------------------------------|--------------------------------|
B||-----5-----5-----5-4/5-----5------|---5----6----7----6--7--6--5----|
G||-----5-----5-----5-4/5-----5------|---5----6----7----6--7--6--5----|
D||-----5-----5-----4-3/4-----4------|---5----6----7----6--7--6--5----|
A||--------------5-------5------5----|--------------------------------|
E||--5-----5-------------------------|-5----6----7----6--7--6--5------|

A)Verso

Am D9/7 Bm7 E7
Mirame una vez para ver
E||-----------------------------------------------------------------|
B||-----5-----5-----5-4/5-----5--------7-----7------5-4/5-----5-----|
G||-----5-----5-----5-4/5-----5--------7-----7------7-6/7-----7-----|
D||-----5-----5-----4-3/4-----4--------7-----7------6-5/6-----6-----|
A||--------------5---------5----5----------------7---------7-----7--|
E||--5-----5------------------------7-----7-------------------------|

Am D9/7 Bm7 E7
Lo que tengo que hacer para estar bien
D9/7 Am
Nunca mas te pedi algo para mi
D9/7 Bm7 E7
Nunca mas te pedi algo para existir

A)
Yo nunca antes de ti conoci
La suavidad de amar hasta el fin
y mi voz ya cambio es lo que escuchas
y canto para aliviar esto que no se que es......(Dooo)

Coro)

Am D9/7 Bm7 E7
Cada cosa que quiero se va sin decir adios
Am D9/7 Bm7 E7
Siento el tiempo lento pasar con el viento se van
D9/7 Bm7 Am D9/7
Las palabras que te di se crearon para ti
Am D9/7
y no quiero embriagarme en mi pena amor...
Am D9/7
Una vez mas
Am D9/7 Bm7 E9/7
Una vez maaaaaaaaaas... Para amanecer
Am D9/7 Bm7 E9/7 (Fig 2)
Una vez maaaaaaaaaas...junto a ti amor

A) ---Notas del Verso---

Coro)

Am D9/7 Bm7 E7
Cada cosa que quiero se va sin decir adios
Am D9/7 Bm7 E7
Siento el tiempo lento pasar con el viento se van
D9/7 Bm7 Am D9/7
Las palabras que te di se crearon para ti
Am D9/7
y no quiero embriagarme en mi pena amor...
Am D9/7
Una vez mas
Am D9/7 Bm7 E9/7
Una vez maaaaaaaaaas... Para amanecer
Am D9/7 Bm7 E9/7
Una vez maaaaaaaaaas...junto a ti amor
Am D9/7 Am E7 (Dejar sonando)
Tengo pena amor si tu conmigo no estas.......
Suggest correction
Give kudos to tab author, rate the tab!
1 2 3 4 5
comments
print report bad tab
guest
Wanna post a correction for this tab? Suggest correction