Oops, an error
Loading. Please wait.

Tal Vez Mañana Brille El Sol Tab

by Jaf
106 views 1 this week
no commentswrite comment
1 2 3 4 5
3 more votes to show rating
add to favorites
launch autoscroll
font size
0
reset
how to read this tab
guitar tuner
Autoscroll
slow
fast
+/-
esc
set tempo
stop
Help us to improve Ultimate-Guitar.com Take our survey!
×
A5
 G#5
 F#5
 E5
 B5
 F#
 C#
 C#5

la guitarra electrica entra en el coro


A5                        G#5  F#5
  No he querido a nadie como a ti,
                 E5          B5
Y hoy a nadie extraño como a ti.
           F#     F#5 G#5  A5
Quiero detener mi co  ra  zón,
              B5           C#
Quiero darle fin a mi dolor...

e----4b5--0h2h0------
B----------------2---
G--------------------
D--------------------
A--------------------
E--------------------


RIFF

e--------------------------------
B--------------------------------
G--------------------------------
D--------------------------------
A-----------------4---2----------
E----0----2--4--5----------------


     A5   E5    B5       C#5
Tal vez mañana brille el sol
  A5    B5
Y su calor...
Riff
Permita que en mi existir..

Vuelva la ilusion ..
De nuevo junto a mi...


e----------------------------------------------
B------10---12b14--12-10-10h12p10-9-9h10p9-----
G----9----9--------------------------------11--
D----------------------------------------------
A----------------------------------------------
E----------------------------------------------


e---------12---------11h12p11--9-11-9----------
B----------------------------------------------
G---11b13---13p11--9---------------------------
D----------------------------------------------
A----------------------------------------------
E----------------------------------------------


e----------------------------------------------------
B--12-10-9-9h10p9------------------------------------
G-----------------9---8-9-9/11--9-8-8h9p8------------
D-----------------------------------------11-9-9/11--
A----------------------------------------------------
E----------------------------------------------------


e---------------------------------
B---------------------------------
G--11b12--9h11p9------------------
D----------------11---------------
A---------------------------------
E---------------------------------

Listo guitarros! he reparado el solo ahora si suena pelero
cualquier sugerencia será bienvenida


h= hammer= Martilleo
b= Bend= Subir la cuerda
p= despues del martilleo vuelve a la primera nota
Suggest correction
Give kudos to tab author, rate the tab!
1 2 3 4 5
comments
print report bad tab
guest
You may want to rate the tab now too:
select rating
Wanna post a correction for this tab? Suggest correction