Oops, an error
Loading. Please wait.

Aquí No Es Así Tab

version 1
version 1

Whole song

43 views 1 this week
no commentswrite comment
1 2 3 4 5
3 more votes to show rating
add to favorites
launch autoscroll
font size
0
reset
how to read this tab
guitar tuner
Autoscroll
slow
fast
+/-
esc
set tempo
stop
Help us to improve Ultimate-Guitar.com Take our survey!
×
Intro
e|---------------------------------|------------------------------------|
B|---------------------------------|------------------------------------|
G|-5/7?7-7---7-5---5---5-7---7-5---|------------------------------------|
D|---------------------------------|-8------5----8----5-------5---8-----|
A|---------------------------------|----8------------------8------------|
E|---------------------------------|------------------------------------|
e|----------------------------------|-----------------------------------|
B|-------------------------6--6-----|-----------------------------------|
G|-5/7?7-7---7-5---5---5------------|--7--------------------------------|
D|----------------------------------|-----------------------------------|
A|----------------------------------|-----------------------------------|
E|----------------------------------|-----------------------------------|
(Rifff Intermedio)
e|----------------------------------|-----------------------------------|
B|----------------------------------|-----------------------------------|
G|-5/7?7-7---7-5---5---5-7---7-5----|-----------------------------------|
D|----------------------------------|-8------5----8----5-------5---8----|
A|----------------------------------|----8------------------8-----------|
E|----------------------------------|-----------------------------------|
e|-----------------------------------|----------------------------------|
B|-----------------------------------|----------------------------------|
G|-5/7?7-7---7-5---------------------|----------------------------------|
D|-------------------8-----7--8----7-|----5-----------------------------|
A|-----------------------------------|----------------------------------|
E|-----------------------------------|----------------------------------|
 (Riff Verso)
Vienes caminando y no sabes tu destino???
e|-----------------------------------|-----------------------------------|
B|-----------------------------------|-----------------------------------|
G|-----------------------------------|-0-----0--------0-----------0------|
D|------0--3--0-------0---3----0--3--|-----0--------3-----0-----0------3-|
A|-1---------------3-----------------|-----------------------------------|
E|-----------------------------------|-----------------------------------|
e|-----------------------------------|-----------------------------------|
B|-----------------------------------|-----------------------------------|
G|-----------------------------------|-0-----0--------0----0-----0-------|
D|------0--3--0-------0---3----0--3--|-----0--------3-----------0------3-|
A|-1---------------3-----------------|-----------------------------------|
E|-----------------------------------|-----------------------------------|
?.Sueñas a ser deidad
(Riff Intermedio)
Sigues caminando?.
(Riff  Verso)
?.Fuerzas que jamás entenderás
(Riff  Coro)
Y vienes desde allá?..
e|------------------------------------|-----------------------------------|
B|------------------------------------|-----------------------------------|
G|----------------------------------0-|-----------------------------------|
D|-----------3-----3----0-----3-------|-3------------3----3----0----3---4-|
A|----0---3---------------------------|-------0---3-----------------------|
E|-1----------------------------------|----1------------------------------|

e|----------------------------------|-------------------------------------|
B|----------------------------------|-------------------------------------|
G|-0-----0--------0-----------0-----|-0-----0--------0-----------0--------|
D|-----0--------3-----0-----0-----3-|-----0--------3-----0-----0------3---|
A|----------------------------------|-------------------------------------|
E|----------------------------------|-------------------------------------|
?.por un amor
(Solo 1)
Pero aquí no es así??
e|-13--10---13--10----13--10---13---10-|-13--10---13?10---13?10----13--10-|
B|-------------------------------------|----------------------------------|
G|-------------------------------------|----------------------------------|

e|-13--10---13--10----13--10---13---10-|-13--10---13?10---13?10----13--10-|
B|-------------------------------------|----------------------------------|
G|-------------------------------------|----------------------------------|

e|-18--15---20------20--18------20------|-18------20?-------18?-----20?---|
B|--------------20----------20-------20-|-----20-------20-------20----20--|
G|--------------------------------------|---------------------------------|

e|--------------------------------------------|---------------------------|
B|-20--18---18-18-16---16-16-15-?13-----------|---------------------------|
G|------------------------------------15--14--|---------------------------|

(Riff Verso)
Vienes caminando ignorando sagrados ritos?.
?.cada piedra es un altar
(Riff Coro)
Y vienes des de?..
?. Por un amor
(Solo 2)
e|-13--10---13--10----13--10---13---10-|--13--10---13?10---13?10---13--10-|
B|-------------------------------------|----------------------------------|
G|-------------------------------------|----------------------------------|

e|-20------18------20------------18------|-20----18?-------20------18-----|
B|---20--------20--------20-----------20-|----20--------20-----20------20-|
G|---------------------------------------|--------------------------------|

e|------------------------------------|-----------------------------------|
B|-18-----------20----18-----------20-|-18---------20----18------------20-|
G|-----19-----------------19----------|----19----------------19--19-------|
D|----------20------------------20----|-------20---------------------20---|

e|20-17---20-17-17-----17--------------|----------------------------------|
B|-----18----------18-----18--18----18-|----------------------------------|
G|-------------------------------17----|17--------17-------17-------------|
D|-------------------------------------|---19--------19-------19----19--17|
A|-------------------------------------|-------20-------20-------20-------|

e|------------------------------|-----------------------------------------|
B|------------------------------|-----------------------------------------|
G|------------------------------|-----------------------------------------|
D|-8---8---8---8--8---8---8---8-|-10--10--8-----7-------------------------|
A|-8---8---8---8--8---8---8---8-|-10-----------------10-8----7--10------8-|
E|-6---6---6---6--6---6---6---6-|-8---------------------------------------|
e|------------------------------------|-----------------------------------|
B|------------------------------------|-----------------------------------|
G|--------------10--10----9---10---12-|-----------------------------------|
D|---7----10--------------------------|-10------------10---10---9--10--11-|
A|-8----------------------------------|----10--7--10----------------------|
E|------------------------------------|-----------------------------------|
e|---------------------------|--------------------------------------------|
B|---------------------------|--------------------------------------------|
G|-12-----------12---12---14-|-15-14---12-15-14---12-15-14---12-10--------|
D|----12----12---------------|-------------------------------------13--12-|
A|-------13------------------|--------------------------------------------|
E|---------------------------|--------------------------------------------|
e|-----------------------------|------------------------------------------|
B|-----------------------------|------------------------------------------|
G|-10--10--------10------------|--------------14---12--10-----------10----|
D|--------7---10------10--12---|-13--12----10---------------13---12----12-|
A|-----------------------------|------------------------------------------|
E|-----------------------------|------------------------------------------|
e|-------------------------------|-----------------------------------|----|
B|------------------------15/16--|-18--18-18--18--18--16--15--16--15-|-13-|
G|-------------10---15----15/17--|-19--19-19--19--19--17--15--17--15-|-14-|
D|--------12--------------------|------------------------------------|----|
A|-13--13-----------------------|------------------------------------|----|
E|------------------------------|------------------------------------|----|
(Riff Coro)
Y vienes des de ??..
?.por un amor
(Riff Final)
e|-8------------8-----8-----------------|-8-------------8-----8-------|
B|---6--8---6------------6--8-----------|----6--8---6------------6--8-|
G|--------------------------------------|-----------------------------|
D|--------------------------------------|-----------------------------|

e|-10------------10----10-----------|-10-------------10----10-------------|
B|--------8------------------8------|--------8----------------------8-----|
G|----10------10---------10------10-|----10-----10-------------10------10-|
D|----------------------------------|-------------------------------------|

e|-8-----------8----8---------------|-8--------------8----8---------------|
B|-----8---------------6----8-----6-|-----6--8---6-----------6--8-------6-|
G|--10-----10-----------------------|-------------------------------------|
D|----------------------------------|-------------------------------------|

e|-----------------6----------6----|---------1-------6----5-------3-----1-|
B|-------6------------6----------6-|-----3-------3-------------3----------|
G|----7--------7---------7---------|-3------------------------------------|
D|-8-------------------------------|--------------------------------------|

Se repite (Riff Final)

Pues esta es mi primera aportación
Espero que les guste
Transcripción Gustavo Romero Mena
Dudas y comentarios
gus_gus10@
Suggest correction
Give kudos to tab author, rate the tab!
1 2 3 4 5
comments
print report bad tab
guest
You may want to rate the tab now too:
select rating
Wanna post a correction for this tab? Suggest correction