Oops, an error
Loading. Please wait.

Aquí No Es Así Tab

version 2
version 2

Whole song

41 views 3 this week
no commentswrite comment
1 2 3 4 5
3 more votes to show rating
add to favorites
launch autoscroll
font size
0
reset
how to read this tab
guitar tuner
×
Best way to learn
"Aquí No Es Así"
Autoscroll
slow
fast
+/-
esc
set tempo
stop
intro

E |--------------------------------------------------|
B |--------------------------------------------------|
G |--5/7--7-7-7--5--5-5--7-7-5-----------------------|
D |-----------------------------8---5--8---5---5--8--|
A |-------------------------------8------------------|
E |--------------------------------------------------|

E |--------------------------------------------------|
B |--------------------------------------------------|
G |-5--5/7--7-7-7--5--5-5-10-10-~~7~~----------------|
D |--------------------------------------------------|
A |--------------------------------------------------|
E |--------------------------------------------------|

E |--------------------------------------------------|
B |--------------------------------------------------|
G |--5/7--7-7-7--5--5-5--7-7-5-----------------------|
D |-----------------------------8---5--8---5---5--8--|
A |-------------------------------8------------------|
E |--------------------------------------------------|

E |--------------------------------------------------|
B |--------------------------------------------------|
G |-5--5/7--7-7-7--5--5-5-3-2-0----------------------|
D |--------------------------------------------------|
A |--------------------------------------------------|
E |--------------------------------------------------|


RIFF 1 ------------  REPETIR 4 VECES

E |--------------------------------------------------|
B |--------------------------------------------------|
G |--------------------------------------------------|
D |---0-3-0---0-3-0-3--5-0-5-3-5-0-0-5-3-------------|
A |-1-------3----------------------------------------|
E |--------------------------------------------------|

RIFF 2 ---------------- CORO

     y vienes..............................................
E |---------------------------------------------------------------------------|
B |---------------------------------------------------------------------------|
G |---------------------------------------------------------------------------|
D |---------3-3-2-3-5-----------3-3-2-3-4-5-0-5-3-5-0-0-5-3-5-0-5-3-5-0-0-5-3-|
A |-----0-3-----------------0-3-----------------------------------------------|
E |-1-1-----------------1-1---------------------------------------------------|

2DA GUITARRA MIENTRAS ESTA EL RIFF 2

 ES

F  Y  G#m

 solo son 3 tiempos cada uno si no entienden escuchen bien la cancion


REQUINTO
E |-------------------------18--15---18--15-|
B |--18--15--18--15-------------------------|
G |-----------------------------------------|
D |-----------------------------------------|
A |-----------------------------------------|
E |-----------------------------------------|

E |-15-15-15-13-13-13-11-11-11-10-10-10-~9~-|
B |-----------------------------------------|
G |-----------------------------------------|
D |-----------------------------------------|
A |-----------------------------------------|
E |-----------------------------------------|


SOLO
----

E |--------------------------------------|
B |--------------------------------------|
G |--------------------------------------|
D |-88888888--10----10-8-7---------------|
A |-88888888--10------------10-8-7-10-8--|
E |-66666666--8--------------------------|

E |---------------------------------------------------------|
B |---------------------------------------------------------|
G |------10-10-9-10-12-10----------10-10-9-10-11-12-------12|
D |-7-10------------------10-7-10------------------12---12--|
A |---------------------------------------------------13----|
E |---------------------------------------------------------|

E |---------------------------------------------------|
B |---------------------------------------------------|
G |-14--15-14-12-15-14-12-15-14-----10-10-----10------|
D |---------------------------------------8-10--------|
A |---------------------------------------------------|
E |---------------------------------------------------|

E |--------------------------------------------------------|
B |--------------------------------------------~~11~~------|
G |------------------12-10-8--8-8-7----------10------------|
D |-10--12-13-12-10-----------------8-8--12----------------|
A |--------------------------------------------------------|
E |--------------------------------------------------------|

E |---------------------------------------------------|
B |-11-13--15-15-15-15-15--13-11-13-11~~~~------------|
G |---------------------------------------------------|
D |---------------------------------------------------|
A |---------------------------------------------------|
E |---------------------------------------------------|


ahi tienen toda la cancion SOLO TIENEN QUE ENSAMBLARLA esta muy facil de tocar
primo HANs par que te inspires y sigue tocando no lo dejes :D
Suggest correction
Give kudos to tab author, rate the tab!
1 2 3 4 5
comments
print report bad tab
guest
You may want to rate the tab now too:
select rating
Wanna post a correction for this tab? Suggest correction