Oops, an error
Loading. Please wait.

Clávame Mejor Los Dientes Tab

version 3
version 3

Whole song

20 views 1 this week
no commentswrite comment
1 2 3 4 5
3 more votes to show rating
add to favorites
launch autoscroll
font size
0
reset
how to read this tab
guitar tuner
×
Best way to learn
"Clávame Mejor Los Dientes"
Autoscroll
slow
fast
+/-
esc
set tempo
stop
< = bending up
> = bending down

INTRO RIFF 1
D--------------------
A--------5---------0-
E--0-2-3---3-2-3-2---

RIFF2                   RIFF 3
e------------           e----2-------2----2---2-
B------------           B------3------3---------
G------------           G--------2------2---2---
D------------           D--0--------------------
A----------0-           A-----------------------
E--0-2-3-2---           E-----------------------


INTRO

Am, C, G, D (X2)

RIFF 2

 Am           C
NADA DE LO QUE HAGAS TU
G               D       RIFF 3
ME HARA DEJAR DE QUERERTE
 Am            C
CADA VEZ QUE TU TE VAS 
G            D             RIFF 4
JAMAS TE VAS SOLO TE PIERDES

RIFF 4
G----------------------
D----------5-7-7-7-5---
A--5-5-5-7-----------0-
E----------------------

CORO:
 Am         C            D
DIME SI DE VERAS CREES QUE SE PUEDEN 
              A
DESVIAR A LOS PLANETAS
      C              D
DE UNA TRAYECTORIA DE COLISION

* ENTRE EL CORO LLEVA UN ARREGLO COMO ESTE:
e---------------
B---------------
G------9->-<->--
D--0~-----------

RIFF 2

 Am            C
SI LO QUE PRETENDES ES 
G             D          RIFF 1
HACERME SANGRAR NUEVAMENTE
 Am            C
CLAVAME MEJOR LOS DIENTES
G                  D      RIFF 4
O ENTIERRAME TODAS LAS UÑAS

CORO (X2)

SOLO:
   A#                                                         A
e--------------5-5-5-------------------------------------5-5-5-4-4-
B--3--3-5-3-5--------3~----3---5-<->-3------3---3-5-3-5------------
G--------------------------------------3~--------------------------

RIFF 1

 Am, C, G, D  RIFF 1  (X2)

 Am          C
QUE MANERA DE JUGAR
G                 D          RIFF1
DEJARME PERDIDO ENTRE LA GENTE
 Am          C
SI SE TRATA DE JUGAR 
G                D            RIFF 4
TUS LABIOS SON MAS INTELIGENTES

CORO: (X2)

Bm    F#m       Bm       G
Bm    F#m       Bm       G
                         CLAVAME MEJOR LOS
Bm    F#m       Bm       G
DIENTES

SE REPITE HASTA DESVANECER EL SONIDO

DUDAS O COMENTARIOS ESCRIBIR A bsili@
Suggest correction
Give kudos to tab author, rate the tab!
1 2 3 4 5
comments
print report bad tab
guest
You may want to rate the tab now too:
select rating
Wanna post a correction for this tab? Suggest correction