Oops, an error
Loading. Please wait.

Clávame Mejor Los Dientes Tab

version 4
version 4

Whole song

33 views 1 this week
no commentswrite comment
1 2 3 4 5
3 more votes to show rating
add to favorites
×
Save as Personal and add changes to this tab that will be seen only by you. Learn more ›
×
You can save this tab as Personal to edit and correct it or add notes. All changes will be seen only by you. Learn more »
save as personal
new!
launch autoscroll
font size
0
reset
how to read this tab
guitar tuner
Autoscroll
slow
fast
+/-
esc
set tempo
stop
Intro:                CON:EbOW 2VE.             
E|---------------------------------------------------------|
B|--------------------2-5-4-7---2-5-4--4--2-2-5---4-4-2----|
G|------------------------------------------------------5--|
D|--------0------------------------------------------------|
A|---------------------------------------------------------|
E|--0-2-3---3-2-0-2----------------------------------------|

  Am                 C      
NADA DE LO QUE HAGAS TU 
   G                    D
ME HARA DEJAR DE QUERERTE
 Am                 C
CADA VEZ QUE TU TE VAS
 G                       D
JAMAS TE VAS SOLO TE PIERDES


CORO  pull 1/2 chillada    
E|----------------3----5---5--3--5----5--5--12----|
B|----------3--5----------------------------------|
G|---2--5-----------------------------------------|
D|------------------------------------------------|
A|------------------------------------------------|
E|------------------------------------------------|


 Am
DIME                                                                                             
 C
SI DE VERAS CREES
          D
QUE SE PUEDE
                    A
DESVIAR A LOS PLANETAS
  C                    D
DE UNA TRAYECTORIA DE COLISION


SI LO QUE PRETENDES ES 

HACERME SANGRAR NUEVAMENTE

CLAVAME MEJOR LOS DIENTES

O ENTIERRAME TODAS LAS UÑAS

SE REPITE EL CORO  2 VECES JUNTO CON LA LETRA


BUEN SUSTAIN   /=SLIDE        h=HAMER          M=MORDENTE
solo
E|---------------------------------------------------------|
B|-----------------10--10--10------------------------------|
G|--7--9/10---9--7------------7--7--9/10-9-7-3-7-9/10-9-7--|
D|---------------------------------------------------------|
A|---------------------------------------------------------|
E|---------------------------------------------------------|
        CON  WAH WAH                                   
E|---------------------------------------------------------|
B|--10-8---8/10--------------------------------------------|
G|-------9--------7h-9--5--5M-7--5/4--4M-5--4-2-2-4-5-4-2--|
D|---------------------------------------------------------|
A|---------------------------------------------------------|
E|---------------------------------------------------------|


E|---------------------------------------------------------|
B|--5/10-10-10-10-12-13-12-10-10-10------------------------|
G|---------------------------------------------------------|
D|---------------------------------------------------------|
A|---------------------------------------------------------|
E|---------------------------------------------------------|


E|---------------------------------------------------------|
B|--12--13--12--10--10--10--12--13--13/15--13--15--17------|
G|---------------------------------------------------------|
D|---------------------------------------------------------|
A|---------------------------------------------------------|
E|---------------------------------------------------------|


 Am              C
QUE MANERA DE JUGAR
   G                       D 
DEJARME PERDIDO ENTRE LA GENTE
   Am             C
SI SE TRATA DE JUGAR
  G                         D
TUS LABIOS SON MAS INTELIGENTES


SE REPITE EL CORO

AHORA EL ULTIMO SOLO CON MUCHO SUSTAIN Y NOISE GATE
E|---------------------------------------------------------|
B|--5/7---5-7-5---3-5-3--------------1-3-5-7--5-7-7--------|
G|-----------------------5--4--2--4------------------------|
D|---------------------------------------------------------|
A|---------------------------------------------------------|
E|---------------------------------------------------------|


E|--------------------------------------15--17-------------|
B|--------------10--12--13--15--17--18---------------------|
G|--tiempo--12---------------------------------------------|
D|---------------------------------------------------------|
A|---------------------------------------------------------|
E|---------------------------------------------------------|


*=================================================*
Tab:Eduardo Tovar  Corregida
vertical81@
Suggest correction
Give kudos to tab author, rate the tab!
1 2 3 4 5
comments
print report bad tab
guest
Wanna post a correction for this tab? Suggest correction