Oops, an error
Loading. Please wait.

Clávame Mejor Los Dientes Bass Tab

version 2
version 2

Whole song

37 views 3 this week
no commentswrite comment
1 2 3 4 5
3 more votes to show rating
add to favorites
launch autoscroll
font size
0
reset
guitar tuner
×
Best way to learn
"Clávame Mejor Los Dientes"
Autoscroll
slow
fast
+/-
esc
set tempo
stop
Intro:

G:-------------------| |-------------------|
D:-------------------| |-------------------|
A:--------5----------| |--00-33-22-5-5-----|2X
E:--0-2-3---3-2-3-2--| |-------------------|

D:---------------5/7-----------|
A:--0-3-2-2/5-5-------3-2-2/5--|
E:-----------------------------|

G:---------------5-7-9--|
D:-----------5-7--------|
A:-------5-7------------|
E:--5h8-----------------|

D:--------------------------------5h7-777777--
A:--0-000-00--3-333-33--5-555-55--------------
E:--------------------------------------------

D:-------------------------|
A:--3-333-33--5-555-55--0--|
E:-------------------------|

A:-----------00-33-22-5-3h5--------5--------00-33-22-5--|
E:--0-2-3-2------------------0-2-3---3-2-3--------------|

G:---------------5-7-9--|
D:-----------5-7--------|
A:-------5-7------------|
E:--5h8-----------------|

D:--------------------------------5h7-777777--
A:--0-000-00--3-333-33--5-555-55--------------
E:--------------------------------------------

D:----------------------|
A:--3-333-33--5-555-55--| 2X
E:----------------------|

Esta Parte Se Repite 2 Veces, Pero Cuando Terminas De Tocar
El 'D' Tocas Esto:

G:--------------5-555555-7-777777-\2--|
D:--5h7-777777------------------------|
A:------------------------------------|

A:--1-111-1--|
E:-----------| 5x

A:--0-000-0--3/5--555-555--|
E:-------------------------|

Solo De Guitar:

D:-------------------------------------------|
A:--00-0--33-3--22-2--5555--------5----------| 2X
E:--------------------------0-2-3---3-2-3-2--|

Fin De Solo:

A:--0--33-3--22-2--5--------5----------00-33-22-55--|
D:--------------------0-2-3---3-2-3-2---------------|

G:---------------5-7-9--|
D:-----------5-7--------|
A:-------5-7------------|
E:--5h8-----------------|

D:--------------------------------5h7-777777--
A:--0-000-00--3-333-33--5-555-55--------------
E:--------------------------------------------

D:----------------------|
A:--3-333-33--5-555-55--|
E:----------------------|

D:--------------------------------5h7-777777--
A:--0-000-00--3-333-33--5-555-55--------------
E:--------------------------------------------

G:--55555555--77777777--|
D:----------------------|
A:----------------------|

Repites Esta Parte Hasta Que Se Acabe La Cancion.

A:--2-2\---------/2--|
E:--------3/5\2------|

Bueno Amigos Espero Que Les Guste Esta Cancion!!!
Si Tienen Dudas Favor De Mandarme Un e-mail A MI Nueva
Direccion [
Suggest correction
Give kudos to tab author, rate the tab!
1 2 3 4 5
comments
print report bad tab
guest
You may want to rate the tab now too:
select rating
Wanna post a correction for this tab? Suggest correction