Oops, an error
Loading. Please wait.

Como Yo Te Amé Tab

19 views 1 this week
no commentswrite comment
1 2 3 4 5
3 more votes to show rating
add to favorites
launch autoscroll
font size
0
reset
how to read this tab
guitar tuner
×
Best way to learn
"Como Yo Te Amé"
Autoscroll
slow
fast
+/-
esc
set tempo
stop
INTRO:

e-----------------------
b-0-3-5-3-5---5h6h5-5---    
g-----------4-----------
D-----------------------   x3
A-----------------------
E-----------------------

e-----------------------
b-0-3-5-3-5-------------
g-----------4-----------
D-------------5---------
A-----------------------
E-----------------------


e-7-8-7------------------
b-------10-8-------------
g------------9-7-5-------   (medio rápido)
D------------------------
A------------------------
E------------------------


C                 Cmaj7                 Fmaj7(-5)*
Como yo te amé jamás te lo podrás imaginar, 
     G               D9/F       Em
pues fue una hermosa forma de sentir, 
     Am                    Bbmaj7                        G
de vivir, de morir, y a tu sombra seguir, así yo te amé.


C                     Cmaj7              Fmaj7(-5)*
Como yo te amé ni en sueños lo podrás imaginar 
     G              D9/F      Em     Am
pues todo el tiempo te pertenecí, ilusión no sentí 

e-----------------------
b-1-0-------------------    
g-----2-0---------------
D---------2-------------   
A-----------------------
E-----------------------

       Gm               C7
que no fuera por ti, así es como te amé...


F*                                            Em
Como yo te amé por poco o mucho tiempo que me quede por vivir 
   Am                     Dm7
es verbo que jamás podré volver a repetir, 
    G             D9/F       A7*                A7**
comprendo que fue una exageración lo que yo te amé.


F*                                         Em
Como yo te amé no creo que algún día tu lo quieras entender 
(ARMONICO EN LA CUERDA 2 EN EL DOCEAVO TRASTE)
    Am                         Dm7
tendrás que enamorarte como lo hice yo de ti 

e-----------------------
b-----------------------    
g-----------------------
D-----2-3-3/5-----------   
A-0-5---------5---------
E---------------3-------

         G                  F*
para así saber lo que yo te amé.


SOLO:
F* bmaj F* bmaj 


F*                                            Em
Como yo te amé por poco o mucho tiempo que me quede por vivir 
   Am                     Dm7
es verbo que jamás podré volver a repetir, 
    G             D9/F       A7*                A7**
comprendo que fue una exageración lo que yo te amé.


F*                                         Em
Como yo te amé no creo que algún día tu lo quieras entender 
(ARMONICO EN LA CUERDA 2 EN EL DOCEAVO TRASTE)
    Am                         Dm7
tendrás que enamorarte como lo hice yo de ti 

e-----------------------
b-----------------------    
g-----------------------
D-----2-3-3/5-----------   
A-0-5---------5---------
E---------------3-------

         G                  F*
para así saber lo que yo te amé.


F* Bmaj F* Bmaj 


D--7--------------------   
A-----------------------
E----5\-----------------


            E A D G B E
C            3 3 2 0 1 0
Cmaj7            3 3 2 0 0 0
Fmaj7(-5)*      X 0 3 2 X X (PUEDEN TOCAR LA TERCERA CUERDA SI QUIEREN)
G            3 2 0 0 3 3
D9/F            1 0 0 2 3 3
Em            0 2 2 0 0 0
F*            1 3 3 2 1 0
A7*            X 1 2 0 2 0
A7**            X 0 2 X X X
Am            0 0 2 2 1 0
Gm            3 5 5 3 3 3
C7            0 3 2 3 1 0
Dm7            0 0 0 2 1 1
Bbmaj7      1 1 3 2 3 1


DUDAS Y/O ACLARACIONES ESCRIBIR A alfa_omaega22@ 
GRACIAS. LAS X SON CUERDAS QUE NO SE TOCAN.
Suggest correction
Give kudos to tab author, rate the tab!
1 2 3 4 5
comments
print report bad tab
guest
You may want to rate the tab now too:
select rating
Wanna post a correction for this tab? Suggest correction