Oops, an error
Loading. Please wait.

Derrítete Tab

version 1
version 1

Whole song

76 views 6 this week
no commentswrite comment
1 2 3 4 5
3 more votes to show rating
add to favorites
launch autoscroll
font size
0
reset
how to read this tab
guitar tuner
×
Best way to learn
"Derrítete"
Autoscroll
slow
fast
+/-
esc
set tempo
stop
Intro
      (X 3)
e|------------------------------|------------------------  
B|------------------------------|------------------------
G|------------------------------|------------------------
D|-------4-----4-----4---5---4--|-------4-----4-----4--5-
A|----2-----2-----2-------------|----2-----2-----2-------
E|-0----------------------------|-0----------------------


Expulsame.....
que quiero rescatarme ahora
            RIFF 1 (x2)  e|----------------------------
		         B|----------------------------
		         G|------------7---------------
		         D|------------------------9~--
		         A|--/9--7--9--------9--7------
		         E|---------------9------------

Llevame contigo....
  Deja que me muera        contigo

e|----------------------------------------------------
B|----------------------------------------x----------- 
G|----------------------------------20~~--x----20~~~--
D|----------------------------------------x-----------
A|----------0--2--3~----------------------------------
E|-0--2--3--------------------------------------------


Llevame contigo....
  Deja que me muera        
                          
e|------------------------
B|------------------------
G|------------------------
D|------------------------
A|----------0--2--3--5~---
E|-0--2--3----------------

Solo:
e|------------------------------------------------------
B|------------------------------------------------------
G|------------------------------------------------------
D|--9-----7------9--------------------------------------
A|-----7-----10-----7----10--9--7--9--10~----10--9--7~--
E|------------------------------------------------------


e|--------------------------------------------------------------------
B|--------------------------------------------------------------------
G|--------------------------------------------------------------------
D|--9-----7------9------------------------------------------------12~-
A|-----7-----10-----7----10--9--7--9--10~--11--10--11/14--15--14------
E|--------------------------------------------------------------------


Final:
              (x4)
e|--------------------------
B|--------------------------
G|--------------------------
D|-------4-----4-----4---5--
A|----2-----2-----2---------
E|-0------------------------

Si alguien tiene los demas arreglos, dudas, comentarios, sugerencias
escribir a bsili@
Suggest correction
Give kudos to tab author, rate the tab!
1 2 3 4 5
comments
print report bad tab
guest
You may want to rate the tab now too:
select rating
Wanna post a correction for this tab? Suggest correction