Oops, an error
Loading. Please wait.

Derrítete Tab

version 2
version 2

Whole song

13 views 3 this week
no commentswrite comment
1 2 3 4 5
3 more votes to show rating
add to favorites
launch autoscroll
font size
0
reset
how to read this tab
guitar tuner
Autoscroll
slow
fast
+/-
esc
set tempo
stop
Help us to improve Ultimate-Guitar.com Take our survey!
×
Por lo que mando la tab. de derritete, es porque me di cuenta de que 
estaba completamente mal,y decidi abrirles los ojos.
INTRO
1----------------------------------------------------------
2----------------------------------------------------------
3----------------------------------------------------------
4----------------------------------------------------------
5--9--7--9--7--9--7--9--10--10--9--7--9--7--9--7--9--10--10
6--0--0--0--0--0--0--0--0---0---0--0--0--0--0--0--0--0---0- (x2)

  Expulsame .....            que tengo ...       que quiero  ...
1---------------------------------------------------------------------
2---------------------------------------------------------------------
3---------------------------------------------------------------------
4---------------------------------------------------------------------
5--9--7--9--7--9--7--9--7--7--9--9--9--9--9--9--10--10--10--10--10--10
6--0--0--0--0--0--0--0--0--0--0--0--0--0--0--0--0---0---0---0---0---0-
 
  Ahora 
1--0--------------------------------
2--0--------------------------------
3--0--------------------------------
4--2--------------------------------
5--2--b--7--7--9--7--9--7--9--10--10
6--0--------0--0--0--0--0--0--0---0-  (x2)

Sudame .......               que obstruye...     que quiero.......  
1---------------------------------------------------------------------
2---------------------------------------------------------------------
3---------------------------------------------------------------------
4---------------------------------------------------------------------
5--9--7--9--7--9--7--9--7--7--9--9--9--9--9--9--10--10--10--10--10--10
6--0--0--0--0--0--0--0--0--0--0--0--0--0--0--0--0---0---0---0---0---0-
 
 Ahora 
1--0--------------------------------
2--0--------------------------------
3--0--------------------------------
4--2--------------------------------
5--2--b--7--7--9--7--9--7--9--10--10
6--0--------0--0--0--0--0--0--0---0-  (x2)

Llevame.....                  Hazme tu ......        Deja que..
1--------------------------------------------------------------
2--------------------------------------------------------------
3--------------------------------------------------------5-4--4
4--9--7--9--7--9--7--9--7--7--5--5--5--5--9--7--9--7----4-----4
5--0--0--0--0--0--0--0--0--0--0--0--0--0--0--0--0--0---3------3
6-----------------------------------------------------2--------

  Contigo
1--0--------------------------------
2--0--------------------------------
3--0--------------------------------
4--2--------------------------------
5--2--b--7--7--9--7--9--7--9--10--10
6--0--------0--0--0--0--0--0--0---0-  (x2)

  Mira este......             Me esta......      Peor que en.........
1---------------------------------------------------------------------
2---------------------------------------------------------------------
3---------------------------------------------------------------------
4---------------------------------------------------------------------
5--9--7--9--7--9--7--9--7--7--9--9--9--9--9--9--10--10--10--10--10--10
6--0--0--0--0--0--0--0--0--0--0--0--0--0--0--0--0---0---0---0---0---0-

  En un ser humano
1--0--------------------------------
2--0--------------------------------
3--0--------------------------------
4--2--------------------------------
5--2--b--7--7--9--7--9--7--9--10--10
6--0--------0--0--0--0--0--0--0---0-  (x2)
  DERRITETE MI .........             TE QUIERO....
1--5-5-5-5--------------3-3-3-3-3-3--0
2--5-5-5-5--------------5-5-5-5-5-5--0
3--5-5-5-5--5p7-5b4-4b5-5-5-5-5-5-5--0
4--7-7-7-7--------------5-5-5-5-5-5--2
5--7-7-7-7--------------3-3-3-3-3-3--2
6--5-5-5-5---------------------------0 (x2)

 Llevame.....                  Hazme tu ......        Deja que..
1-----------------------------------------------------------------
2-----------------------------------------------------------------
3--------------------------------------------------------5-4----4-
4--9--7--9--7--9--7--9--7--7--5--5--5--5--9--7--9--7----4------1-1
5--0--0--0--0--0--0--0--0--0--0--0--0--0--0--0--0--0---3------2---
6-----------------------------------------------------2-----------

  Contigo
1-------------------------------------------------------------------
2--12--10--12--10----------10---------------12--10--12--10----------
3----9---12--9---12--11--12----12--11--9------9---12--9---12--11--12
4-------------------------------------------------------------------
5-------------------------------------------------------------------
6-------------------------------------------------------------------

1-----------------------10
2-10--8p10--10p12--10p12--
3-------------------------
4-------------------------
5-------------------------
6-------------------------

  ya que el......              que esta de....  quiero que......
1---------------------------------------------------------------------
2---------------------------------------------------------------------
3---------------------------------------------------------------------
4---------------------------------------------------------------------
5--9--7--9--7--9--7--9--7--7--9--9--9--9--9--9--10--10--10--10--10--10
6--0--0--0--0--0--0--0--0--0--0--0--0--0--0--0--0---0---0---0---0---0-

Contigo
1--0--------------------------------
2--0--------------------------------
3--0--------------------------------
4--2--------------------------------
5--2--b--7--7--9--7--9--7--9--10--10
6--0--------0--0--0--0--0--0--0---0-  (x2)


   ya que el......              que no tiene....  quiero que......
1---------------------------------------------------------------------
2---------------------------------------------------------------------
3---------------------------------------------------------------------
4---------------------------------------------------------------------
5--9--7--9--7--9--7--9--7--7--9--9--9--9--9--9--10--10--10--10--10--10
6--0--0--0--0--0--0--0--0--0--0--0--0--0--0--0--0---0---0---0---0---0-

  A tu lado
1--0--------------------------------
2--0--------------------------------
3--0--------------------------------
4--2--------------------------------
5--2--b--7--7--9--7--9--7--9--10--10
6--0--------0--0--0--0--0--0--0---0-  (x2)

DERRITETE MI .........             TE QUIERO....
1--5-5-5-5--------------3-3-3-3-3-3--0
2--5-5-5-5--------------5-5-5-5-5-5--0
3--5-5-5-5--5p7-5b4-4b5-5-5-5-5-5-5--0
4--7-7-7-7--------------5-5-5-5-5-5--2
5--7-7-7-7--------------3-3-3-3-3-3--2
6--5-5-5-5---------------------------0 (x4)

1----------------------------------------------
2----------------------------------------------
3-------------9--7-7-7p5-5-5-5p4-4-4-4p5-5-5p12
4--7---9-10---9--------------------------------
5--7---9-10---7--------------------------------
6--5---7-8-------------------------------------

1----------------------------------------------
2----------------7-7-7p8-8-8-8p10-10-10-10p12--
3-------------9--------------------------------
4--7---9-10---9--------------------------------
5--7---9-10---7--------------------------------
6--5---7-8-------------------------------------

1----------------------------------------------
2------------------10-8p7--------10-8p7--------
3-------------9---7------9-7p9--7------9-7p9---
4--7---9-10---9--9--------9----9--------9------
5--7---9-10---7--------------------------------
6--5---7-8-------------------------------------

1-------------|
2-------------|
3-------------|
4--7---9-10---|
5--7---9-10---|
6--5---7-8----|

1----------------------------------------------------------
2----------------------------------------------------------
3----------------------------------------------------------
4----------------------------------------------------------
5--9--7--9--7--9--7--9--10--10--9--7--9--7--9--7--9--10--10
6--0--0--0--0--0--0--0--0---0---0--0--0--0--0--0--0--0---0- (x4)


Espero les guste chavos, pase mucho tiempo en ella,se la dedico a ANA 
y a mi cuate el OSO.
Suggest correction
Give kudos to tab author, rate the tab!
1 2 3 4 5
comments
print report bad tab
guest
You may want to rate the tab now too:
select rating
Wanna post a correction for this tab? Suggest correction