Oops, an error
Loading. Please wait.

Detrás De Los Cerros Tab

226 views 3 this week
no commentswrite comment
1 2 3 4 5
3 more votes to show rating
add to favorites
launch autoscroll
font size
0
reset
how to read this tab
guitar tuner
×
Best way to learn
"Detrás De Los Cerros"
Autoscroll
slow
fast
+/-
esc
set tempo
stop
==================LAS PISADAS====================
+-----------------------------------------------+
| Jaguares                                      |
| DETRAS DE LOS CERROS                          |
| Saul Hernandez                                |
| El Equilibrio de los Jaguares [1996]          |
+-------------------------------------------TAB-+
==============DEL ROCK EN ESPA~OL================

Notaciones :
h=hammer.
p=pulling.
s=slide.
/=slide es que de la primera nota se desliza de una vez a la segunda.
v=bending que sube ½ tono a la nota.
V%=bending que le sube  1½ tonos a la nota.
AH= Artificial Harmonic.
 
En Detras de los Cerros hay 2 guitarras :
Guitar1(lead guitar) con distortion
Guitar2 (acoustic) acustica.

Intro : 
La guitarra2 toca este riff sola, y despues lo repite 2 veces mas
acompanando a la guitara1. (3 veces por todo) (Guitar2 plays 3 times this
riff) :
 
Riff1
e|-------------------------|
B|--3-h-5-p-3--------------|
G|---------------4---------|
D|-------------------------|
A|-------------------------|
E|-------------------------|

Despues que la guitarra 2 toca el riff sola, la guitarra1 toca esto (after
the guitar2 plays the riff the first time, guitar2 play this) :

e|--5-s-7---3--3-s-5------------------------------------|
B|-----------------------3--3-s-5---3--5--3-------------|
G|-----------------------------------------------4--5---|
D|------------------------------------------------------|
A|------------------------------------------------------|
E|------------------------------------------------------|


La guitarra1 acompana la voz con los suguientes acordes :

    Am      Em   F#m    F
e|----8------7------9-----5---|----7--7--7---7---7--7---|
B|--10------8-----10-----6----|----8--8--8---8---8--8---|
G|---9------9-----11-----5----|---9--9--9---9---9--9----|
D|--10------9-----11-----3----|----9--9--9---9---9--9---|
A|----------------------------|-------------------------|
E|----------------------------|-------------------------|

      Ej. de las veces que se toca cada acorde. 
      Se tocan como en reggae como cortados.

Am    Em    F#m    F    Em
La segunda vuelta se repite dos veces el Am.


Cambio :
La guitarra1 acompana la voz con estos riffs :

e|--9---9--12--8---10-p-8-h-10-p-8----15-s-17---------------|
B|----------------------------------------------------------|
G|---------------------------------------------------16-----|
D|----------------------------------------------------------|
A|----------------------------------------------------------|
E|----------------------------------------------------------|

Coro :
La guitarra2 toca estos acordes :
    Am   C      D   F
e|---0----0-----2---1--------------|
B|--1----1-----3----1--------------|
G|--2----0-----2----2--------------|
D|--2----2-----0----3--------------|
A|--0----3-----0----3--------------|
E|--0----0-----------1-------------|

Am    C    D    F.

Cuando termina el coro la guitarra2 toca este riff :

Riff 2 :
e|-------------15-------------15-------------15--|
B|-------12-------------12-------------12--------|
G|--13-------------13-------------13-------------|
D|-----------------------------------------------|
A|-----------------------------------------------|
E|-----------------------------------------------|

Despues se repite el intro.
Se repite el verso.
Se repite el cambio.
Se repite el coro.

Despues de tocar el coro 2 veces, la guitarra2 sigue dando los acordes, y
LA guitarra1 toca :

e|--------------------------------10---------------------------------------------------------------|
B|--------------------------------10--12--13-------------------------------------------------------|
G|----------------------------------------------------------------------------------------------9--|
D|--7v%--7v%7-/-12------------------------7--10-/-14-14v--14v--12---12--12--10-12---12-------------|
A|-------------------------12----------------------------------------------------------------------|
E|-------------------------------------------------------------------------------------------------|

e|----------------------------------10-----------------------12vAH----------------|
B|----------------------------------10--12--13------------------------------------|
G|--------------------------------------------------------------------------------|
D|--7v%--7v%---7-/-12------------------------7--10-/-14------------------14v--12--|
A|---------------------------12---------------------------------------------------|
E|--------------------------------------------------------------------------------|

e|--18-/-10--10--8-/-10--10--12--------|
B|---------------------------------10--|
G|-------------------------------------|
D|-------------------------------------|
A|-------------------------------------|
E|-------------------------------------|

Despues de esto la guitarra1 toca el riff2 y al mismo tiempo la guitarra2
toca este riff :

e|----------0----------0----------0----|
B|------0----------0----------0--------|
G|--1----------1----------1------------|
D|-------------------------------------|
A|-------------------------------------|
E|-------------------------------------|

y despues la guitarra2 toca el riff1 una sola vez. La guitarra1 toca Am.

=================================================
Transcripcion de Juan Mini~o
(

Cualquier correccion es Bienvenida.
Suggest correction
Give kudos to tab author, rate the tab!
1 2 3 4 5
comments
print report bad tab
guest
You may want to rate the tab now too:
select rating
Wanna post a correction for this tab? Suggest correction