Oops, an error
Loading. Please wait.

Detrás De Los Cerros Bass

87 views 1 this week
no commentswrite comment
1 2 3 4 5
3 more votes to show rating
add to favorites
launch autoscroll
font size
0
reset
guitar tuner
×
Best way to learn
"Detrás De Los Cerros"
Autoscroll
slow
fast
+/-
esc
set tempo
stop
Esta es una buena rola para practicar arpegios menores
disfrútala...y recuerda escucharla un par de veces para
agarrar bien los tiempos...

  Intro con guitarra
  Am
G|-------------|-------------|-------------|-------------|
D|------5h7----|-------------|------5h7-5--|-------------|
A|---7---------|-------------|---7--------7|-------------|
E|5---------555|-0-h-5-3-0---|5------------|5--5--5555---|

  Ay, que por ti...
  Am            Em            F#m    F      Em 
G|-------------|-------------|-------------|-------------|
D|----7--------|-------------|-------------|-------------|
A|---7------7--|----2------2-|---4----0-3-0|----2------2-|
E|5-8---5--8-8-|0-3---3-0-3-3|2-5-5--1-----|0-3---3-0-3-3|

  Ay, que por ti...
  Am                     Em            F#m       F
G|----------------------|-------------|---------|--------|
D|----------------------|-------------|---------|--------|
A|---7------7----7----7-|----2------2-|-----4---|--0-3-0-|
E|5-8-8--5-8--5-8--5-8-8|0-3---3-0-3-3|2--5---5-|1-------|

  Em
G|-------------||
D|-------------||
A|----2-----2-5||
E|0-3---3-0----||

  Quiero saber...
  A             Am            C             Em
G|-------------|----5--------|-------------|-------------|
D|----5h7-5----|--7---7------|-----8h10-8--|-------------|
A|--7-------7--|7-------7----|--10-------10|----2h4-2----|
E|5-----------5|-------------|8------------|0-3-------3--|
 *                       2  veces                        *
  Am
G|----------------||
D|----------------|| Esto se toca en la
A|----------------||   ultima vuelta
E|5-5-5-5-5-5-5-5-||

 CORO
 Ay amor...
  Am            C             D             F
G|-------------|-------------|-------------|------5------|
D|-------------|--------5----|---4---7---4-|----7---7?5--|
A|--------7----|----7-------7|5------------|8-----------8|
E|5---8-------8|8------------|-------------|-------------|
 *                      4  veces                         *
  Am 
G|-------------||
D|------7--7---|| Esto se toca en
A|---7---------|| la ultima vuelta
E|5------------||

 Repite toda la rola igual...

Dudas preguntas o comentarios escribe a  laburka@
Suggest correction
Give kudos to tab author, rate the tab!
1 2 3 4 5
comments
print report bad tab
guest
You may want to rate the tab now too:
select rating
Wanna post a correction for this tab? Suggest correction