Oops, an error
Loading. Please wait.

En La Habitación De Tu Mente Tab

43 views 1 this week
no commentswrite comment
1 2 3 4 5
3 more votes to show rating
add to favorites
launch autoscroll
font size
0
reset
how to read this tab
guitar tuner
Autoscroll
slow
fast
+/-
esc
set tempo
stop
Help us to improve Ultimate-Guitar.com Take our survey!
×
este es el tab de guitarra acustica
Intro (V 1) Muchas veces
e----------------------------------------------------------|
b------------------------------------------------1-0-------|
g-------0-------------0----------------------0----------0--|
d---0-----4---0---2-----4---0---2----4---2-0---0------0----|
a-2---2-----2---3---3-----3---4---4----4-------------------|
e----------------------------------------------------------|
(V 2)
e------------------|
b--3---1-0---------|
g----0-----0-------|
d-0----------------|
a------------------|
e------------------|


V 3)
e--------------------------------------------------------|
b--3---1-0-----3---1---------1-0-------3----1-0----------|
g----0-----0---------0---0---------0-------------0-------|
d-0----------0---0-----0---0-----0---0----0--------2-2---|
a--------------------------------------------------------|
e--------------------------------------------------------|

e-----------------------------------------|
b-----------------------------------------|
g-----------------------------------------|
d----------------0-0-----------------0-0--|
a-2-2--3-3--4-4-------2-2--3-3--4-4-------|
e-----------------------------------------|

eso es todo manden sus dudas o comentarios a
caifan_4315@
Suggest correction
Give kudos to tab author, rate the tab!
1 2 3 4 5
comments
print report bad tab
guest
You may want to rate the tab now too:
select rating
Wanna post a correction for this tab? Suggest correction