Oops, an error
Loading. Please wait.

Huracán Bass

version 1
version 1

Whole song

Interactive

19 views 1 this week
no commentswrite comment
1 2 3 4 5
3 more votes to show rating
add to favorites
launch autoscroll
font size
0
reset
guitar tuner
×
Best way to learn
"Huracán"
Autoscroll
slow
fast
+/-
esc
set tempo
stop
 Intro y estrofas 1, 2 y 3
  B                         D
G|------------|------------|------------|------------|
D|------------|------------|------------|------------|
A|1h222--1h222-1h222--1h222|4h555--4h555-4h555--4h555|
E|------------|------------|------------|------------|

  A                         F
G|------------|------------|------------|------------|
D|------------|------------|------------|------------|
A|------------|------------|------------|------------|
E|4h555--4h555-4h555-?4h555|0h111?-0h111-0h111?-0h111|

  C
G|------------|------------||
D|------------|------------||
A|2h333--2h333-2h333-?2h333||
E|------------|------------||

  Estribillo...
  Bb            F             G#           C   
G|-------------|-------------|-------------|------------|
D|-------------|33-3333-33333|66-6666-66666|5-5-5-------|
A|11-1111-11111|-------------|-------------|-------3----|
E|-------------|-------------|-------------|------------|

  Coro...
  Am     C     Dm6    E7    Am    C      Dm6   E7
G|------------|------------|------------|------------|
D|------------|------------|------------|------------|
A|-------3----|-2----------|------3-----|-2----------|
E|-5----------|-------0----|-5----------|-------0----|

  F     E7     Am        F      E7    Am
G|------------|------------|------------||
D|------------|------------|------------||
A|------------|------------|------------||
E|1-----0-----|5--5-5-5--1-|-----0----5-||

....Repiten igual las siguientes estrofas y el coro...

----Solo de guitarra
  Am     C     Dm6    E7    Am    C      Dm6    E7
G|------------|------------|------------|------------|
D|------------|-------2----|------------|------------|
A|-------3----|-2----------|------3-----|-2------7---|
E|5-----------|------------|5-----------|------------|

RIFF  1

  Am     C     Dm6    E7    Am    C      Dm6  E7
G|------------|------------|------------|----------------|
D|------------|--------2---|------------|--------5-7-5-7-|
A|-------3----|-2----------|------3-----|-2---7-7-------7|
E|5-----------|------------|5-----------|------7---------|

RIFF  2

  Am     C     Dm6    E7    Am    C      Dm6   E7
G|------------|------------|------------|--------------|
D|------------|------------|------------|-------5-7-9s7|
A|-------3-333|2-222--7-777|------3-333-|2-222-7-------|
E|5-555-------|------------|5-555-------|--------------|

  De aquí en adelante repite el riff No. 2 hasta el final.

Dudas preguntas o comentarios escribe a:
laburka@
Suggest correction
Give kudos to tab author, rate the tab!
1 2 3 4 5
comments
print report bad tab
guest
You may want to rate the tab now too:
select rating
Wanna post a correction for this tab? Suggest correction