Oops, an error
Loading. Please wait.

Imagíname Tab

version 1
version 1

Whole song

Interactive

47 views 1 this week
no commentswrite comment
1 2 3 4 5
3 more votes to show rating
add to favorites
×
Save as Personal and add changes to this tab that will be seen only by you. Learn more ›
×
You can save this tab as Personal to edit and correct it or add notes. All changes will be seen only by you. Learn more »
save as personal
new!
launch autoscroll
font size
0
reset
how to read this tab
guitar tuner
Autoscroll
slow
fast
+/-
esc
set tempo
stop
intro
	2 veces           
E----0-2-3-2--------------|--7*8*7--10----------
B--1-------------3/4-5-5--|------------9-7-9-7--
G-------------------------|---------------------
D-------------0-----------|---------------------
A-3-----------------------|---------------------
E-------------------------|---------------------

Verso
   rezare  por  ti...     ...misterio ancestral
E-----------2--------0--l     -------0---
B----1------3------1----l     -----------
G---0-------------------l     -----2-----
D-------0---------------l     ----2------
A-3--------------3------l     ---2-------
E-----------------------l     --x--------
puente
Aguila celeste...  ...nunca se me fue 
E------------0|      E----------0--
B----3-----3--|      B----1-----1--
G---3--3------|      G---2--2------
D--3-----3----|      D--2----2-----
A-1-----------|      A-0-----------
E-------------|      E-------------


Coro
 Imaginame... despues del coro 2 veces 
E-3--3--1---|--------------------|
B-4--4--3---|--------------------|
G-3--3--2---|-----13~~~~--14~~~~~|
D-x--x--0---|--------------------|
A-x--x--x---|--------------------|
E-x--x--x---|--------------------|
Suggest correction
Give kudos to tab author, rate the tab!
1 2 3 4 5
comments
print report bad tab
guest
Wanna post a correction for this tab? Suggest correction