Oops, an error
Loading. Please wait.

Imagíname Tab

version 3
version 3

Whole song

Interactive

25 views 1 this week
no commentswrite comment
1 2 3 4 5
3 more votes to show rating
add to favorites
launch autoscroll
font size
0
reset
how to read this tab
guitar tuner
Autoscroll
slow
fast
+/-
esc
set tempo
stop
Help us to improve Ultimate-Guitar.com Take our survey!
×
INTRO
Guitarra 1
1----------------------------------------------------------------------------------
2----------------------------------------------------------------------------------
3------4---------4---------4---------4---------4---------4---------4---------4-----
4----4---4---2-----2---3-----3---2-----2---3-----3---2-----2---3-----3---2-----2---
5--3-------3---3-----3---3-----3---3-----3---3-----3---3-----3---3-----3---3-----3-
6----------------------------------------------------------------------------------

1------------------------------------|este arpegeo sigue hasta el coro
2------------------------------------|
3------2---------2---------2---------|
4----4---4---5-----5---4-----4---0---|
5----------------------------------2-|
6--0-------0---0-----0---0-----0-----|

Guitarra 2
1--------------------------|
2----8-8---7-7---3-3-3p5-5-| 
3--------------------------| 
4--5-----4-----0-----------| 
5--------------------------| 
6--------------------------| (x3)

PRIMER ARREGLO
1---------------------------------------------7-8-9-9-7---------3--|
2----8-8---10-10---12-12----13-13----13-13-12-----------8-5---3---5|
3-----------------------------------------------------------4------|
4--5-----7-------9-------10-------10-------------------------------|
5------------------------------------------------------------------|
6------------------------------------------------------------------|

SEGUNDO ARREGLO

1---------------------------------------------7-8-9-10-11-12-----3--|
2----8-8---10-10---12-12----13-13----13-13-12------------------3---5|
3------------------------------------------------------------4------|
4--5-----7-------9-------10-------10--------------------------------|
5-------------------------------------------------------------------|
6-------------------------------------------------------------------|


 PRIMER SOLO

1--6--8--10--12--13--15--10--8--|
2--6--8--11--13--15--17--11--10-|
3--7--9--10--12--12--14--10--9--|
4-------------------------------|
5-------------------------------|
6-------------------------------|

 SEGUNDO SOLO

1--12p15-12-10-10p12-10-7-7p10-7-5-5p7-5-3-3p5-3-------------3-5-7-8-7-7p8p7-|
2------------------------------------------------5-5p8-5-3-5-------8-8-------|
3------------------------------------------------------------------9-9-------|
4----------------------------------------------------------------------------|
5----------------------------------------------------------------------------|
6----------------------------------------------------------------------------|

ESO ES TODO BROTHERS, ESPERO LES GUSTE,DUDAS O ACLARACIONES,
escribanme youreslave_table@
Suggest correction
Give kudos to tab author, rate the tab!
1 2 3 4 5
comments
print report bad tab
guest
You may want to rate the tab now too:
select rating
Wanna post a correction for this tab? Suggest correction