Oops, an error
Loading. Please wait.

Mejor Será Tab

25 views 1 this week
no commentswrite comment
1 2 3 4 5
3 more votes to show rating
add to favorites
launch autoscroll
font size
0
reset
how to read this tab
guitar tuner
×
Best way to learn
"Mejor Será"
Autoscroll
slow
fast
+/-
esc
set tempo
stop
Intro

e|-----3------3-----3----3---3----3--3----3--|
b|---3---3-----3--4---4---4---4--6-6--6--6---|
g|-2--------2--------------------------------|
d|-------------------------------------------|
a|-------------------------------------------|
e|-------------------------------------------|

e|--3--3----3-|
b|-4-4--4--4--|
g|------------|
d|------------|
a|------------|
e|------------| todo esto se toca en los versos

voy armandome de escamas, y no presumo, y no presumo
voy rastreando caracoles, y no pregunto, y no pregunto

riff 1
e|--3-6----6--5----5----7----7-----3--|
b|-3---3--3----3--3-3--3-3--3-3----3--|

veo caminos que no conozco, y no me pierdo, y no me pierdo
veo planetas que estan naciendo, (Y muero un poco 2x)

    Dm     Eb    F5
e|--5------6-----8---|
b|--5------6-----8---|
g|--7------8-----10--|
d|--7------8-----10--|
a|--5------6-----8---|
e|-------------------|

coro:
Dm      Eb    F5            Dm
Mejooor sera, que me coma tus ojos
                 Eb     F5
para mirar tu mundo.
2x

Intro
versos. (riff 1)
coro

ASI!!!
(los acordes son los mismos Dm Eb F5 escuchen los cambios)


e|----------------------------------------------------|
b|----------------------------------------------------|
g|----------------------------------------------------|
d|------------------------------8/10--12-13-15-16-----|
a|-5---5---6-----9--10---12-12------------------------|
e|----------------------------------------------------|

e|-----------------------|
b|-----------------15b~--|
g|-12-14-15-17-19--------|
d|-----------------------|
a|-----------------------|
e|-----------------------|

los acordes son iguales hasta el final.

NO pude sacar el resto del solo debido a que anaba muy
apurado.  disfruten lo que si pude sacar.
Suggest correction
Give kudos to tab author, rate the tab!
1 2 3 4 5
comments
print report bad tab
guest
You may want to rate the tab now too:
select rating
Wanna post a correction for this tab? Suggest correction