Oops, an error
Loading. Please wait.

Nunca Te Doblarás Tab

version 2
version 2

Whole song

Interactive

21 views 3 this week
no commentswrite comment
1 2 3 4 5
3 more votes to show rating
add to favorites
launch autoscroll
font size
0
reset
how to read this tab
guitar tuner
×
Best way to learn
"Nunca Te Doblarás"
Autoscroll
slow
fast
+/-
esc
set tempo
stop
INTRO:
   GUITARRA 1
e|------------------------------
B|------------------------------
G|------------------------------
D|------------------------------
A|--11--11--11--13--11--13--15--
E|------------------------------

   GUITARRA 2
e|--7--7--6--6--------------
B|--9-----------9--9--------
G|--9-----------------9--9--
D|--------------------------
A|--------------------------
E|--------------------------


VERSOS:
*ESTO ES LO QUE TOCA JOSE MANUEL AGUILERA 
MIENTRAS SAUL HACE UN ARPEGIO CON LO ACORDES

RIFF 1 (X2)
e|------------------12--12--12--12--16------------------16--12--12--12--12--
B|--14--14--14--14--14--14--14--14--16--14--14--14--14--16--14--14--14--14--
G|--13--13--13--13----------------------13--13--13--13----------------------
D|--------------------------------------------------------------------------
A|--------------------------------------------------------------------------
E|--------------------------------------------------------------------------

RIFF 2
e|------------------
B|--15--14--12--15--
G|--15--14--12--15--
D|------------------
A|------------------
E|------------------

SE REPITE RIFF 1


CORO:

e|---------------------------------------------
B|------------------7--------------------------
G|-----7-----7-------------------------10------
D|----------------------------6--8/12------11--
A|--6-----9-----10------6--8-------------------
E|---------------------------------------------

ESCUCHEN LA CANCION PARA QUE SEA MAS FACIL

DUDAS, COMENTARIOS, SUGERENCIAS, CORRECCIONES
O SI SOLO DESEAN PLATICAR CON UN BUEN FAN DE LOS JAGUARES
ESCRIBAN A bsili@
Suggest correction
Give kudos to tab author, rate the tab!
1 2 3 4 5
comments
print report bad tab
guest
You may want to rate the tab now too:
select rating
Wanna post a correction for this tab? Suggest correction